  0
SECTION
  2
HEADER
  9
$ACADVER
  1
AC1014
  9
$ACADMAINTVER
 70
     0
  9
$DWGCODEPAGE
  3
ANSI_1252
  9
$INSBASE
 10
0.0
 20
0.0
 30
0.0
  9
$EXTMIN
 10
0.0
 20
0.0
 30
0.0
  9
$EXTMAX
 10
297.0
 20
210.0
 30
0.0
  9
$LIMMIN
 10
0.0
 20
0.0
  9
$LIMMAX
 10
12.0
 20
9.0
  9
$ORTHOMODE
 70
     0
  9
$REGENMODE
 70
     1
  9
$FILLMODE
 70
     0
  9
$QTEXTMODE
 70
     0
  9
$MIRRTEXT
 70
     1
  9
$DRAGMODE
 70
     2
  9
$LTSCALE
 40
2.97
  9
$OSMODE
 70
     0
  9
$ATTMODE
 70
     1
  9
$TEXTSIZE
 40
0.2
  9
$TRACEWID
 40
0.05
  9
$TEXTSTYLE
  7
STANDARD
  9
$CLAYER
  8
0
  9
$CELTYPE
  6
BYLAYER
  9
$CECOLOR
 62
   256
  9
$CELTSCALE
 40
1.0
  9
$DELOBJ
 70
     1
  9
$DISPSILH
 70
     0
  9
$DIMSCALE
 40
1.0
  9
$DIMASZ
 40
0.18
  9
$DIMEXO
 40
0.0625
  9
$DIMDLI
 40
0.38
  9
$DIMRND
 40
0.0
  9
$DIMDLE
 40
0.0
  9
$DIMEXE
 40
0.18
  9
$DIMTP
 40
0.0
  9
$DIMTM
 40
0.0
  9
$DIMTXT
 40
0.18
  9
$DIMCEN
 40
0.09
  9
$DIMTSZ
 40
0.0
  9
$DIMTOL
 70
     0
  9
$DIMLIM
 70
     0
  9
$DIMTIH
 70
     0
  9
$DIMTOH
 70
     0
  9
$DIMSE1
 70
     0
  9
$DIMSE2
 70
     0
  9
$DIMTAD
 70
     1
  9
$DIMZIN
 70
     0
  9
$DIMBLK
  1

  9
$DIMASO
 70
     1
  9
$DIMSHO
 70
     1
  9
$DIMPOST
  1

  9
$DIMAPOST
  1

  9
$DIMALT
 70
     0
  9
$DIMALTD
 70
     2
  9
$DIMALTF
 40
25.4
  9
$DIMLFAC
 40
1.0
  9
$DIMTOFL
 70
     0
  9
$DIMTVP
 40
0.0
  9
$DIMTIX
 70
     0
  9
$DIMSOXD
 70
     0
  9
$DIMSAH
 70
     0
  9
$DIMBLK1
  1

  9
$DIMBLK2
  1

  9
$DIMSTYLE
  2
STANDARD
  9
$DIMCLRD
 70
     0
  9
$DIMCLRE
 70
     0
  9
$DIMCLRT
 70
     0
  9
$DIMTFAC
 40
1.0
  9
$DIMGAP
 40
0.09
  9
$DIMJUST
 70
     0
  9
$DIMSD1
 70
     0
  9
$DIMSD2
 70
     0
  9
$DIMTOLJ
 70
     1
  9
$DIMTZIN
 70
     0
  9
$DIMALTZ
 70
     0
  9
$DIMALTTZ
 70
     0
  9
$DIMFIT
 70
     3
  9
$DIMUPT
 70
     0
  9
$DIMUNIT
 70
     2
  9
$DIMDEC
 70
     2
  9
$DIMTDEC
 70
     4
  9
$DIMALTU
 70
     2
  9
$DIMALTTD
 70
     2
  9
$DIMTXSTY
  7
STANDARD
  9
$DIMAUNIT
 70
     0
  9
$LUNITS
 70
     2
  9
$LUPREC
 70
     4
  9
$SKETCHINC
 40
0.1
  9
$FILLETRAD
 40
0.5
  9
$AUNITS
 70
     0
  9
$AUPREC
 70
     0
  9
$MENU
  1
.
  9
$ELEVATION
 40
0.0
  9
$PELEVATION
 40
0.0
  9
$THICKNESS
 40
0.0
  9
$LIMCHECK
 70
     0
  9
$BLIPMODE
 70
     0
  9
$CHAMFERA
 40
0.5
  9
$CHAMFERB
 40
0.5
  9
$CHAMFERC
 40
1.0
  9
$CHAMFERD
 40
0.0
  9
$SKPOLY
 70
     0
  9
$TDCREATE
 40
2450772.666465926
  9
$TDUPDATE
 40
2455259.010625000
  9
$TDINDWG
 40
0.0011564931
  9
$TDUSRTIMER
 40
0.0000000000
  9
$USRTIMER
 70
     1
  9
$ANGBASE
 50
0.0
  9
$ANGDIR
 70
     0
  9
$PDMODE
 70
     0
  9
$PDSIZE
 40
0.0
  9
$PLINEWID
 40
0.0
  9
$COORDS
 70
     1
  9
$SPLFRAME
 70
     0
  9
$SPLINETYPE
 70
     6
  9
$SPLINESEGS
 70
     8
  9
$ATTDIA
 70
     0
  9
$ATTREQ
 70
     1
  9
$HANDLING
 70
     1
  9
$HANDSEED
  5
26D
  9
$SURFTAB1
 70
     6
  9
$SURFTAB2
 70
     6
  9
$SURFTYPE
 70
     6
  9
$SURFU
 70
     6
  9
$SURFV
 70
     6
  9
$UCSNAME
  2

  9
$UCSORG
 10
0.0
 20
0.0
 30
0.0
  9
$UCSXDIR
 10
1.0
 20
0.0
 30
0.0
  9
$UCSYDIR
 10
0.0
 20
1.0
 30
0.0
  9
$PUCSNAME
  2

  9
$PUCSORG
 10
0.0
 20
0.0
 30
0.0
  9
$PUCSXDIR
 10
1.0
 20
0.0
 30
0.0
  9
$PUCSYDIR
 10
0.0
 20
1.0
 30
0.0
  9
$USERI1
 70
     0
  9
$USERI2
 70
     0
  9
$USERI3
 70
     0
  9
$USERI4
 70
     0
  9
$USERI5
 70
     0
  9
$USERR1
 40
0.0
  9
$USERR2
 40
0.0
  9
$USERR3
 40
0.0
  9
$USERR4
 40
0.0
  9
$USERR5
 40
0.0
  9
$WORLDVIEW
 70
     1
  9
$SHADEDGE
 70
     3
  9
$SHADEDIF
 70
    70
  9
$TILEMODE
 70
     1
  9
$MAXACTVP
 70
    48
  9
$PINSBASE
 10
0.0
 20
0.0
 30
0.0
  9
$PLIMCHECK
 70
     0
  9
$PEXTMIN
 10
0.0
 20
0.0
 30
0.0
  9
$PEXTMAX
 10
0.0
 20
0.0
 30
0.0
  9
$PLIMMIN
 10
0.0
 20
0.0
  9
$PLIMMAX
 10
12.0
 20
9.0
  9
$UNITMODE
 70
     0
  9
$VISRETAIN
 70
     1
  9
$PLINEGEN
 70
     0
  9
$PSLTSCALE
 70
     1
  9
$TREEDEPTH
 70
  3020
  9
$PICKSTYLE
 70
     1
  9
$CMLSTYLE
  2
STANDARD
  9
$CMLJUST
 70
     0
  9
$CMLSCALE
 40
1.0
  9
$PROXYGRAPHICS
 70
     1
  9
$MEASUREMENT
 70
     0
  0
ENDSEC
  0
SECTION
  2
CLASSES
  0
CLASS
  1
LWPOLYLINE
  2
AcDbPolyline
  3
"AutoCAD"
 90
        0
280
     0
281
     1
  0
CLASS
  1
IMAGE
  2
AcDbRasterImage
  3
ISM
 90
      127
280
     0
281
     1
  0
CLASS
  1
OLE2FRAME
  2
AcDbOle2Frame
  3
""
 90
        0
280
     0
281
     1
  0
CLASS
  1
HATCH
  2
AcDbHatch
  3
"ACAD_SEDONA"
 90
        0
280
     0
281
     1
  0
CLASS
  1
DICTIONARYVAR
  2
AcDbDictionaryVar
  3
"AutoCAD"
 90
        0
280
     0
281
     0
  0
CLASS
  1
RASTERVARIABLES
  2
AcDbRasterVariables
  3
ISM
 90
        0
280
     0
281
     0
  0
CLASS
  1
IMAGEDEF
  2
AcDbRasterImageDef
  3
ISM
 90
        0
280
     0
281
     0
  0
CLASS
  1
IMAGEDEF_REACTOR
  2
AcDbRasterImageDefReactor
  3
ISM
 90
        1
280
     0
281
     0
  0
CLASS
  1
IDBUFFER
  2
AcDbIdBuffer
  3
"Acad"
 90
        0
280
     0
281
     0
  0
CLASS
  1
SPATIAL_FILTER
  2
AcDbSpatialFilter
  3
"Acad"
 90
        0
280
     0
281
     0
  0
CLASS
  1
XRECORD
  2
AcDbXrecord
  3
"<Built In>"
 90
        0
280
     0
281
     0
  0
CLASS
  1
SORTENTSTABLE
  2
AcDbSortentsTable
  3
"AutoCAD"
 90
        0
280
     0
281
     0
  0
CLASS
  1
LAYER_INDEX
  2
AcDbLayerIndex
  3
"Acad"
 90
        0
280
     0
281
     0
  0
CLASS
  1
SPATIAL_INDEX
  2
AcDbSpatialIndex
  3
"Acad"
 90
        0
280
     0
281
     0
  0
CLASS
  1
OBJECT_PTR
  2
CAseDLPNTableRecord
  3
"ASE-LPNTableRecord"
 90
        1
280
     0
281
     0
  0
CLASS
  1
LAYOUT
  2
AcDbLayout
  3
"AutoCAD 2000"
 90
        1
280
     0
281
     0
  0
CLASS
  1
PLOTSETTINGS
  2
AcDbPlotSettings
  3
"AutoCAD 2000"
 90
        1
280
     0
281
     0
  0
CLASS
  1
ACDBDICTIONARYWDFLT
  2
AcDbDictionaryWithDefault
  3
"AutoCAD 2000"
 90
        1
280
     0
281
     0
  0
CLASS
  1
ACDBPLACEHOLDER
  2
AcDbPlaceHolder
  3
"AutoCAD 2000"
 90
        1
280
     0
281
     0
  0
CLASS
  1
VBA_PROJECT
  2
AcDbVbaProject
  3
"acadvba"
 90
        1
280
     0
281
     0
  0
CLASS
  1
WIPEOUT
  2
AcDbWipeout
  3
WipeOut|AutoCAD Express Tool|expresstools@autodesk.com
 90
      127
280
     0
281
     1
  0
CLASS
  1
WIPEOUTVARIABLES
  2
AcDbWipeoutVariables
  3
WipeOut|AutoCAD Express Tool|expresstools@autodesk.com
 90
        0
280
     0
281
     0
  0
CLASS
  1
RTEXT
  2
RText
  3
RText|AutoCAD Express Tool|expresstools@autodesk.com
 90
        0
280
     0
281
     1
  0
CLASS
  1
ARCALIGNEDTEXT
  2
AcDbArcAlignedText
  3
ATEXT|AutoCAD Express Tool|expresstools@autodesk.com
 90
        0
280
     0
281
     1
  0
ENDSEC
  0
SECTION
  2
TABLES
  0
TABLE
  2
VPORT
  5
8
100
AcDbSymbolTable
 70
     1
  0
VPORT
  5
25
100
AcDbSymbolTableRecord
100
AcDbViewportTableRecord
  2
*ACTIVE
 70
     0
 10
0.0
 20
0.0
 11
1.0
 21
1.0
 12
148.5
 22
105.0
 13
0.0
 23
0.0
 14
0.5
 24
0.5
 15
0.5
 25
0.5
 16
0.0
 26
0.0
 36
1.0
 17
0.0
 27
0.0
 37
0.0
 40
210.0
 41
1.414286
 42
50.0
 43
0.0
 44
0.0
 50
0.0
 51
0.0
 71
     0
 72
   100
 73
     1
 74
     1
 75
     0
 76
     0
 77
     0
 78
     0
  0
ENDTAB
  0
TABLE
  2
LTYPE
  5
5
100
AcDbSymbolTable
 70
     5
  0
LTYPE
  5
12
100
AcDbSymbolTableRecord
100
AcDbLinetypeTableRecord
  2
BYBLOCK
 70
    64
  3

 72
    65
 73
     0
 40
0.0
  0
LTYPE
  5
13
100
AcDbSymbolTableRecord
100
AcDbLinetypeTableRecord
  2
BYLAYER
 70
    64
  3

 72
    65
 73
     0
 40
0.0
  0
LTYPE
  5
14
100
AcDbSymbolTableRecord
100
AcDbLinetypeTableRecord
  2
CONTINUOUS
 70
     0
  3
Solid line
 72
    65
 73
     0
 40
0.0
  0
LTYPE
  5
36
100
AcDbSymbolTableRecord
100
AcDbLinetypeTableRecord
  2
DASHDOT
 70
     0
  3
DASHDOT
 72
    65
 73
     4
 40
1.0
 49
0.5
 74
     0
 49
-0.25
 74
     0
 49
0.0
 74
     0
 49
-0.25
 74
     0
  0
LTYPE
  5
1FB
100
AcDbSymbolTableRecord
100
AcDbLinetypeTableRecord
  2
DOT
 70
     0
  3
DOT
 72
    65
 73
     2
 40
0.25
 49
0.0
 74
     0
 49
-0.25
 74
     0
  0
ENDTAB
  0
TABLE
  2
LAYER
  5
2
100
AcDbSymbolTable
 70
     1
  0
LAYER
  5
E
100
AcDbSymbolTableRecord
100
AcDbLayerTableRecord
  2
0
 70
     0
 62
     7
  6
CONTINUOUS
  0
ENDTAB
  0
TABLE
  2
STYLE
  5
3
100
AcDbSymbolTable
 70
     1
  0
STYLE
  5
F
100
AcDbSymbolTableRecord
100
AcDbTextStyleTableRecord
  2
STANDARD
 70
     0
 40
0.0
 41
1.0
 50
0.0
 71
     0
 42
0.2
  3
txt.shx
  4

  0
ENDTAB
  0
TABLE
  2
VIEW
  5
6
100
AcDbSymbolTable
 70
     0
  0
ENDTAB
  0
TABLE
  2
UCS
  5
7
100
AcDbSymbolTable
 70
     0
  0
ENDTAB
  0
TABLE
  2
APPID
  5
9
100
AcDbSymbolTable
 70
     1
  0
APPID
  5
10
100
AcDbSymbolTableRecord
100
AcDbRegAppTableRecord
  2
ACAD
 70
     0
  0
ENDTAB
  0
TABLE
  2
DIMSTYLE
  5
A
100
AcDbSymbolTable
 70
     1
  0
DIMSTYLE
105
1D
100
AcDbSymbolTableRecord
100
AcDbDimStyleTableRecord
  2
STANDARD
 70
     0
  3

  4

  5

  6

  7

 40
1.0
 41
0.18
 42
0.0625
 43
0.38
 44
0.18
 45
0.0
 46
0.0
 47
0.0
 48
0.0
 71
     0
 72
     0
 73
     1
 74
     1
 75
     0
 76
     0
 77
     0
 78
     0
140
0.18
141
0.09
142
0.0
143
25.4
144
1.0
145
0.0
146
1.0
147
0.09
170
     0
171
     2
172
     0
173
     0
174
     0
175
     0
176
     0
177
     0
178
     0
270
     2
271
     4
272
     4
273
     2
274
     2
275
     0
280
     0
281
     0
282
     0
283
     1
284
     0
285
     0
286
     0
287
     3
288
     0
340
F
  0
ENDTAB
  0
TABLE
  2
BLOCK_RECORD
  5
1
100
AcDbSymbolTable
 70
    57
  0
BLOCK_RECORD
  5
18
100
AcDbSymbolTableRecord
100
AcDbBlockTableRecord
  2
*MODEL_SPACE
  0
BLOCK_RECORD
  5
15
100
AcDbSymbolTableRecord
100
AcDbBlockTableRecord
  2
*PAPER_SPACE
  0
BLOCK_RECORD
  5
64
100
AcDbSymbolTableRecord
100
AcDbBlockTableRecord
  2
KREIS
  0
BLOCK_RECORD
  5
68
100
AcDbSymbolTableRecord
100
AcDbBlockTableRecord
  2
FELD
  0
BLOCK_RECORD
  5
6C
100
AcDbSymbolTableRecord
100
AcDbBlockTableRecord
  2
F\U+00FCNFECK
  0
BLOCK_RECORD
  5
70
100
AcDbSymbolTableRecord
100
AcDbBlockTableRecord
  2
STERN_7
  0
BLOCK_RECORD
  5
74
100
AcDbSymbolTableRecord
100
AcDbBlockTableRecord
  2
SECHSECK
  0
BLOCK_RECORD
  5
78
100
AcDbSymbolTableRecord
100
AcDbBlockTableRecord
  2
CIRCLE_8
  0
BLOCK_RECORD
  5
7C
100
AcDbSymbolTableRecord
100
AcDbBlockTableRecord
  2
VERBINDER_LINIE_KURVE
  0
BLOCK_RECORD
  5
80
100
AcDbSymbolTableRecord
100
AcDbBlockTableRecord
  2
KONZENTRISCHES_ZENTRUM
  0
BLOCK_RECORD
  5
84
100
AcDbSymbolTableRecord
100
AcDbBlockTableRecord
  2
AUTO-H\U+00F6HE
  0
BLOCK_RECORD
  5
89
100
AcDbSymbolTableRecord
100
AcDbBlockTableRecord
  2
MANUELLE_VERARBEITUNG
  0
BLOCK_RECORD
  5
8D
100
AcDbSymbolTableRecord
100
AcDbBlockTableRecord
  2
REGEN
  0
BLOCK_RECORD
  5
C5
100
AcDbSymbolTableRecord
100
AcDbBlockTableRecord
  2
SONNE
  0
BLOCK_RECORD
  5
E8
100
AcDbSymbolTableRecord
100
AcDbBlockTableRecord
  2
PARK
  0
BLOCK_RECORD
  5
F4
100
AcDbSymbolTableRecord
100
AcDbBlockTableRecord
  2
QUADR__FELD
  0
BLOCK_RECORD
  5
F8
100
AcDbSymbolTableRecord
100
AcDbBlockTableRecord
  2
RADIOAKTIV
  0
BLOCK_RECORD
  5
102
100
AcDbSymbolTableRecord
100
AcDbBlockTableRecord
  2
CIRCLE_18
  0
BLOCK_RECORD
  5
108
100
AcDbSymbolTableRecord
100
AcDbBlockTableRecord
  2
BESCHRIFTUNG
  0
BLOCK_RECORD
  5
10D
100
AcDbSymbolTableRecord
100
AcDbBlockTableRecord
  2
GEBOGENER_PFEIL
  0
BLOCK_RECORD
  5
114
100
AcDbSymbolTableRecord
100
AcDbBlockTableRecord
  2
SECHSKANT_SCHRAUBENKOPF
  0
BLOCK_RECORD
  5
119
100
AcDbSymbolTableRecord
100
AcDbBlockTableRecord
  2
GEWINDE1
  0
BLOCK_RECORD
  5
11D
100
AcDbSymbolTableRecord
100
AcDbBlockTableRecord
  2
FEDER
  0
BLOCK_RECORD
  5
126
100
AcDbSymbolTableRecord
100
AcDbBlockTableRecord
  2
KONZENTRISCHER_LAYER_1
  0
BLOCK_RECORD
  5
12B
100
AcDbSymbolTableRecord
100
AcDbBlockTableRecord
  2
AKTENORDNER
  0
BLOCK_RECORD
  5
12F
100
AcDbSymbolTableRecord
100
AcDbBlockTableRecord
  2
KONZENTRISCHER_LAYER_3
  0
BLOCK_RECORD
  5
134
100
AcDbSymbolTableRecord
100
AcDbBlockTableRecord
  2
KONZENTRISCHER_LAYER_2
  0
BLOCK_RECORD
  5
139
100
AcDbSymbolTableRecord
100
AcDbBlockTableRecord
  2
CIRCLE_28
  0
BLOCK_RECORD
  5
142
100
AcDbSymbolTableRecord
100
AcDbBlockTableRecord
  2
TEIL-LAYER_3
  0
BLOCK_RECORD
  5
146
100
AcDbSymbolTableRecord
100
AcDbBlockTableRecord
  2
KRUMMER_PFEIL
  0
BLOCK_RECORD
  5
14A
100
AcDbSymbolTableRecord
100
AcDbBlockTableRecord
  2
2D-DOPPEL
  0
BLOCK_RECORD
  5
14E
100
AcDbSymbolTableRecord
100
AcDbBlockTableRecord
  2
TEIL-LAYER_4
  0
BLOCK_RECORD
  5
152
100
AcDbSymbolTableRecord
100
AcDbBlockTableRecord
  2
1D-PFEIL
  0
BLOCK_RECORD
  5
15C
100
AcDbSymbolTableRecord
100
AcDbBlockTableRecord
  2
RAUTE
  0
BLOCK_RECORD
  5
160
100
AcDbSymbolTableRecord
100
AcDbBlockTableRecord
  2
ORGANISATION
  0
BLOCK_RECORD
  5
171
100
AcDbSymbolTableRecord
100
AcDbBlockTableRecord
  2
AFP-SERVER
  0
BLOCK_RECORD
  5
19A
100
AcDbSymbolTableRecord
100
AcDbBlockTableRecord
  2
COMPUTER
  0
BLOCK_RECORD
  5
1B5
100
AcDbSymbolTableRecord
100
AcDbBlockTableRecord
  2
WWW-SERVER
  0
BLOCK_RECORD
  5
1B8
100
AcDbSymbolTableRecord
100
AcDbBlockTableRecord
  2
SMARTCARD__SICH__ID-KTE
  0
BLOCK_RECORD
  5
1BB
100
AcDbSymbolTableRecord
100
AcDbBlockTableRecord
  2
ORGANISATIONS-_EINHEIT
  0
BLOCK_RECORD
  5
1CE
100
AcDbSymbolTableRecord
100
AcDbBlockTableRecord
  2
UNBEKANNT
  0
BLOCK_RECORD
  5
1DB
100
AcDbSymbolTableRecord
100
AcDbBlockTableRecord
  2
ALLGEMEINES_OBJEKT
  0
BLOCK_RECORD
  5
1E9
100
AcDbSymbolTableRecord
100
AcDbBlockTableRecord
  2
VERZEICHNIS-_VERBINDER
  0
BLOCK_RECORD
  5
1ED
100
AcDbSymbolTableRecord
100
AcDbBlockTableRecord
  2
WWW-_CLUSTER
  0
BLOCK_RECORD
  5
1F0
100
AcDbSymbolTableRecord
100
AcDbBlockTableRecord
  2
DF\U+00DC-_VERBINDUNG
  0
BLOCK_RECORD
  5
1F5
100
AcDbSymbolTableRecord
100
AcDbBlockTableRecord
  2
PEER-TO-PEER
  0
BLOCK_RECORD
  5
1FF
100
AcDbSymbolTableRecord
100
AcDbBlockTableRecord
  2
MASTER_47
  0
BLOCK_RECORD
  5
207
100
AcDbSymbolTableRecord
100
AcDbBlockTableRecord
  2
MASTER_48
  0
BLOCK_RECORD
  5
20C
100
AcDbSymbolTableRecord
100
AcDbBlockTableRecord
  2
MASTER_49
  0
BLOCK_RECORD
  5
214
100
AcDbSymbolTableRecord
100
AcDbBlockTableRecord
  2
MASTER_50
  0
BLOCK_RECORD
  5
220
100
AcDbSymbolTableRecord
100
AcDbBlockTableRecord
  2
MASTER_51
  0
BLOCK_RECORD
  5
225
100
AcDbSymbolTableRecord
100
AcDbBlockTableRecord
  2
GEWINDELOCH_1
  0
BLOCK_RECORD
  5
22A
100
AcDbSymbolTableRecord
100
AcDbBlockTableRecord
  2
MATRIX
  0
BLOCK_RECORD
  5
24F
100
AcDbSymbolTableRecord
100
AcDbBlockTableRecord
  2
MASTER_54
  0
BLOCK_RECORD
  5
253
100
AcDbSymbolTableRecord
100
AcDbBlockTableRecord
  2
MA\U+00DF
  0
BLOCK_RECORD
  5
25B
100
AcDbSymbolTableRecord
100
AcDbBlockTableRecord
  2
M-LINIE
  0
BLOCK_RECORD
  5
25F
100
AcDbSymbolTableRecord
100
AcDbBlockTableRecord
  2
BOHRKREIS
  0
BLOCK_RECORD
  5
264
100
AcDbSymbolTableRecord
100
AcDbBlockTableRecord
  2
BOHRUNG
  0
BLOCK_RECORD
  5
269
100
AcDbSymbolTableRecord
100
AcDbBlockTableRecord
  2
MASTER_59
  0
ENDTAB
  0
ENDSEC
  0
SECTION
  2
BLOCKS
  0
BLOCK
  5
19
100
AcDbEntity
  8
0
100
AcDbBlockBegin
  2
*MODEL_SPACE
 70
     0
 10
0.0
 20
0.0
 30
0.0
  3
*MODEL_SPACE
  1

  0
ENDBLK
  5
1A
100
AcDbEntity
  8
0
100
AcDbBlockEnd
  0
BLOCK
  5
16
100
AcDbEntity
 67
     1
  8
0
100
AcDbBlockBegin
  2
*PAPER_SPACE
 70
     0
 10
0.0
 20
0.0
 30
0.0
  3
*PAPER_SPACE
  1

  0
ENDBLK
  5
17
100
AcDbEntity
 67
     1
  8
0
100
AcDbBlockEnd
  0
BLOCK
  5
65
100
AcDbEntity
  8
0
100
AcDbBlockBegin
  2
KREIS
 70
     0
 10
0.0
 20
0.0
 30
0.0
  3
KREIS
  1

  0
LWPOLYLINE
  5
66
102
{ACAD_REACTORS
330
9B
102
}
100
AcDbEntity
  8
0
  6
CONTINUOUS
 62
     7
100
AcDbPolyline
 90
        2
 70
     1
 10
35.0
 20
50.0
 42
-1.0
 10
65.0
 20
50.0
 42
-1.0
  0
ENDBLK
  5
67
100
AcDbEntity
  8
0
100
AcDbBlockEnd
  0
BLOCK
  5
69
100
AcDbEntity
  8
0
100
AcDbBlockBegin
  2
FELD
 70
     0
 10
0.0
 20
0.0
 30
0.0
  3
FELD
  1

  0
LWPOLYLINE
  5
6A
102
{ACAD_REACTORS
330
9B
102
}
100
AcDbEntity
  8
0
  6
CONTINUOUS
 62
     7
100
AcDbPolyline
 90
        4
 70
     1
 10
30.0
 20
35.0
 10
70.0
 20
35.0
 10
70.0
 20
65.0
 10
30.0
 20
65.0
  0
ENDBLK
  5
6B
100
AcDbEntity
  8
0
100
AcDbBlockEnd
  0
BLOCK
  5
6D
100
AcDbEntity
  8
0
100
AcDbBlockBegin
  2
F\U+00FCNFECK
 70
     0
 10
0.0
 20
0.0
 30
0.0
  3
F\U+00FCNFECK
  1

  0
LWPOLYLINE
  5
6E
102
{ACAD_REACTORS
330
9B
102
}
100
AcDbEntity
  8
0
  6
CONTINUOUS
 62
     7
100
AcDbPolyline
 90
        5
 70
     1
 10
50.0
 20
70.0
 10
28.970756
 20
54.721359
 10
37.003213
 20
30.0
 10
62.996787
 20
30.0
 10
71.029244
 20
54.721359
  0
ENDBLK
  5
6F
100
AcDbEntity
  8
0
100
AcDbBlockEnd
  0
BLOCK
  5
71
100
AcDbEntity
  8
0
100
AcDbBlockBegin
  2
STERN_7
 70
     0
 10
0.0
 20
0.0
 30
0.0
  3
STERN_7
  1

  0
LWPOLYLINE
  5
72
102
{ACAD_REACTORS
330
9B
102
}
100
AcDbEntity
  8
0
  6
CONTINUOUS
 62
     7
100
AcDbPolyline
 90
       14
 70
     1
 10
44.450419
 20
60.778277
 10
33.548778
 20
62.077509
 10
37.209519
 20
51.877441
 10
29.485665
 20
44.275834
 10
39.742831
 20
40.778278
 10
40.87026
 20
30.0
 10
50.0
 20
35.838685
 10
59.12974
 20
30.0
 10
60.257168
 20
40.778278
 10
70.514335
 20
44.275834
 10
62.790479
 20
51.877441
 10
66.451219
 20
62.076
 10
55.692298
 20
60.778278
 10
49.999997
 20
70.0
  0
ENDBLK
  5
73
100
AcDbEntity
  8
0
100
AcDbBlockEnd
  0
BLOCK
  5
75
100
AcDbEntity
  8
0
100
AcDbBlockBegin
  2
SECHSECK
 70
     0
 10
0.0
 20
0.0
 30
0.0
  3
SECHSECK
  1

  0
LWPOLYLINE
  5
76
102
{ACAD_REACTORS
330
9B
102
}
100
AcDbEntity
  8
0
  6
CONTINUOUS
 62
     7
100
AcDbPolyline
 90
        6
 70
     1
 10
61.547005
 20
70.0
 10
38.452995
 20
70.0
 10
26.905989
 20
50.0
 10
38.452995
 20
30.0
 10
61.547005
 20
30.0
 10
73.094011
 20
50.0
  0
ENDBLK
  5
77
100
AcDbEntity
  8
0
100
AcDbBlockEnd
  0
BLOCK
  5
79
100
AcDbEntity
  8
0
100
AcDbBlockBegin
  2
CIRCLE_8
 70
     0
 10
0.0
 20
0.0
 30
0.0
  3
CIRCLE_8
  1

  0
LWPOLYLINE
  5
7A
102
{ACAD_REACTORS
330
9B
102
}
100
AcDbEntity
  8
0
  6
CONTINUOUS
 62
     7
100
AcDbPolyline
 90
        2
 70
     1
 10
30.0
 20
50.0
 42
-1.0
 10
70.0
 20
50.0
 42
-1.0
  0
ENDBLK
  5
7B
100
AcDbEntity
  8
0
100
AcDbBlockEnd
  0
BLOCK
  5
7D
100
AcDbEntity
  8
0
100
AcDbBlockBegin
  2
VERBINDER_LINIE_KURVE
 70
     0
 10
0.0
 20
0.0
 30
0.0
  3
VERBINDER_LINIE_KURVE
  1

  0
SPLINE
  5
7E
100
AcDbEntity
  8
0
  6
CONTINUOUS
 62
     7
100
AcDbSpline
210
0.0
220
0.0
230
1.0
 70
     8
 71
     2
 72
     6
 73
     3
 74
     0
 42
0.0000001
 43
0.0000001
 40
0.0
 40
0.0
 40
0.0
 40
1.0
 40
1.0
 40
1.0
 10
61.545544730744027
 20
60.000000000000135
 30
0.0
 10
39.474476918878651
 20
52.071067811865298
 30
0.0
 10
41.545544730744297
 20
39.999999999999851
 30
0.0
  0
ENDBLK
  5
7F
100
AcDbEntity
  8
0
100
AcDbBlockEnd
  0
BLOCK
  5
81
100
AcDbEntity
  8
0
100
AcDbBlockBegin
  2
KONZENTRISCHES_ZENTRUM
 70
     0
 10
0.0
 20
0.0
 30
0.0
  3
KONZENTRISCHES_ZENTRUM
  1

  0
CIRCLE
  5
82
102
{ACAD_REACTORS
330
9B
102
}
100
AcDbEntity
  8
0
  6
CONTINUOUS
 62
     7
100
AcDbCircle
 10
12.7
 20
12.7
 30
0.0
 40
10.0
  0
ENDBLK
  5
83
100
AcDbEntity
  8
0
100
AcDbBlockEnd
  0
BLOCK
  5
85
100
AcDbEntity
  8
0
100
AcDbBlockBegin
  2
AUTO-H\U+00F6HE
 70
     0
 10
0.0
 20
0.0
 30
0.0
  3
AUTO-H\U+00F6HE
  1

  0
LWPOLYLINE
  5
86
102
{ACAD_REACTORS
330
9B
102
}
100
AcDbEntity
  8
0
  6
CONTINUOUS
 62
     7
100
AcDbPolyline
 90
        4
 70
     1
 10
35.0
 20
35.0
 10
65.0
 20
35.0
 10
65.0
 20
65.0
 10
35.0
 20
65.0
  0
MTEXT
  5
87
100
AcDbEntity
  8
0
100
AcDbMText
 10
50.0
 20
50.0
 30
0.0
 40
2.054647
 41
28.037166
 71
     5
 72
     5
  1
\C7;\fArial|b0|i0|;\H2.0546471100301;\U+00C4ndern Sie die \PFeldbreite, um die \PAbsatzbreite \Peinzustellen. Die \PFeldh\U+00F6he wird dem \Peingegebenen Text \Pautomatisch \Pangepa\U+00DFt.
  0
ENDBLK
  5
88
100
AcDbEntity
  8
0
100
AcDbBlockEnd
  0
BLOCK
  5
8A
100
AcDbEntity
  8
0
100
AcDbBlockBegin
  2
MANUELLE_VERARBEITUNG
 70
     0
 10
0.0
 20
0.0
 30
0.0
  3
MANUELLE_VERARBEITUNG
  1

  0
LWPOLYLINE
  5
8B
102
{ACAD_REACTORS
330
9B
102
}
100
AcDbEntity
  8
0
  6
CONTINUOUS
 62
     7
100
AcDbPolyline
 90
        4
 70
     1
 10
43.75
 20
42.5
 10
56.25
 20
42.5
 10
62.5
 20
57.5
 10
37.5
 20
57.5
  0
ENDBLK
  5
8C
100
AcDbEntity
  8
0
100
AcDbBlockEnd
  0
BLOCK
  5
8E
100
AcDbEntity
  8
0
100
AcDbBlockBegin
  2
REGEN
 70
     2
 10
0.0
 20
0.0
 30
0.0
  3
REGEN
  1

  0
ELLIPSE
  5
8F
102
{ACAD_REACTORS
330
9B
102
}
100
AcDbEntity
  8
0
  6
CONTINUOUS
 62
     7
100
AcDbEllipse
 10
34.257622
 20
59.079423
 30
0.0
 11
0.0
 21
-4.2966642289753025
 31
0.0
210
0.0
220
0.0
230
1.0
 40
0.990913
 41
2.8052485758816648
 42
5.7643678215184746
  0
ELLIPSE
  5
90
102
{ACAD_REACTORS
330
9B
102
}
100
AcDbEntity
  8
0
  6
CONTINUOUS
 62
     7
100
AcDbEllipse
 10
40.098095
 20
64.780578
 30
0.0
 11
0.0
 21
-4.7687629405205252
 31
0.0
210
0.0
220
0.0
230
1.0
 40
0.990913
 41
3.0879947409278046
 42
5.0646322144340878
  0
ELLIPSE
  5
91
102
{ACAD_REACTORS
330
9B
102
}
100
AcDbEntity
  8
0
  6
CONTINUOUS
 62
     7
100
AcDbEllipse
 10
46.379979
 20
68.436767
 30
0.0
 11
0.0
 21
-6.1836779361200485
 31
0.0
210
0.0
220
0.0
230
1.0
 40
0.990913
 41
1.9499141963353575
 42
4.5326084158265516
  0
ELLIPSE
  5
92
102
{ACAD_REACTORS
330
9B
102
}
100
AcDbEntity
  8
0
  6
CONTINUOUS
 62
     7
100
AcDbEllipse
 10
53.301987
 20
65.607736
 30
0.0
 11
0.0
 21
-5.2659117823533572
 31
0.0
210
0.0
220
0.0
230
1.0
 40
0.990913
 41
1.5505360216870134
 42
3.3794773683321635
  0
ELLIPSE
  5
93
102
{ACAD_REACTORS
330
9B
102
}
100
AcDbEntity
  8
0
  6
CONTINUOUS
 62
     7
100
AcDbEllipse
 10
60.159262
 20
62.730851
 30
0.0
 11
0.0
 21
-3.2270924799667746
 31
0.0
210
0.0
220
0.0
230
1.0
 40
0.990913
 41
1.2637016183827692
 42
3.6802057974435467
  0
ELLIPSE
  5
94
102
{ACAD_REACTORS
330
9B
102
}
100
AcDbEntity
  8
0
  6
CONTINUOUS
 62
     7
100
AcDbEllipse
 10
65.087774
 20
57.175628
 30
0.0
 11
0.0
 21
-4.9572708810708423
 31
0.0
210
0.0
220
0.0
230
1.0
 40
0.990913
 41
1.1932494279598485
 42
3.5344064314598307
  0
LINE
  5
95
102
{ACAD_REACTORS
330
9B
102
}
100
AcDbEntity
  8
0
  6
CONTINUOUS
 62
     7
100
AcDbLine
 10
69.65404
 20
55.348173
 30
0.0
 11
32.146465
 21
55.348173
 31
0.0
  0
ELLIPSE
  5
96
102
{ACAD_REACTORS
330
9B
102
}
100
AcDbEntity
  8
0
  6
CONTINUOUS
 62
     7
100
AcDbEllipse
 10
26.687852
 20
53.255323
 30
0.0
 11
0.0
 21
-11.207142384776699
 31
0.0
210
0.0
220
0.0
230
1.0
 40
0.990913
 41
1.3251657761880524
 42
1.6501444136248553
  0
ELLIPSE
  5
97
102
{ACAD_REACTORS
330
9B
102
}
100
AcDbEntity
  8
0
  6
CONTINUOUS
 62
     7
100
AcDbEllipse
 10
35.744074
 20
50.956698
 30
0.0
 11
0.0
 21
-1.783260616816952
 31
0.0
210
0.0
220
0.0
230
1.0
 40
0.990913
 41
0.6857277011601736
 42
1.329233037762209
  0
ELLIPSE
  5
98
102
{ACAD_REACTORS
330
9B
102
}
100
AcDbEntity
  8
0
  6
CONTINUOUS
 62
     7
100
AcDbEllipse
 10
37.944708
 20
49.062097
 30
0.0
 11
0.0
 21
-1.2067328258728638
 31
0.0
210
0.0
220
0.0
230
1.0
 40
0.990913
 41
4.2719897353848033
 42
6.1265873117101783
  0
ELLIPSE
  5
99
102
{ACAD_REACTORS
330
9B
102
}
100
AcDbEntity
  8
0
  6
CONTINUOUS
 62
     7
100
AcDbEllipse
 10
37.522291
 20
49.582129
 30
0.0
 11
0.0
 21
-1.7284742119374805
 31
0.0
210
0.0
220
0.0
230
1.0
 40
0.990913
 41
0.1381850512444882
 42
1.7721679452952053
  0
ELLIPSE
  5
9A
102
{ACAD_REACTORS
330
9B
102
}
100
AcDbEntity
  8
0
  6
CONTINUOUS
 62
     7
100
AcDbEllipse
 10
30.858212
 20
49.380524
 30
0.0
 11
0.0
 21
-8.4365080938742434
 31
0.0
210
0.0
220
0.0
230
1.0
 40
0.990913
 41
1.6357174263095846
 42
2.1707275657424598
  0
HATCH
  5
9B
100
AcDbEntity
  8
0
 62
     7
100
AcDbHatch
 10
0.0
 20
0.0
 30
0.0
210
0.0
220
0.0
230
1.0
  2
SOLID
 70
     1
 71
     1
 91
        9
 92
        1
 93
        5
 72
     3
 10
26.687852180275499
 20
53.255323399771974
 11
11.105307300678204
 21
0.0
 40
1.00917
 50
355.45369
 51
14.073594
 73
     0
 72
     3
 10
35.744074024974807
 20
50.956698093956831
 11
1.7670567988722592
 21
0.0
 40
1.00917
 50
13.840557
 51
50.710697
 73
     0
 72
     3
 10
37.944708075394118
 20
49.062097493113768
 11
1.1957676989396928
 21
0.0
 40
1.00917
 50
154.766982
 51
261.027596
 73
     1
 72
     3
 10
37.522291204737712
 20
49.582128522247935
 11
1.7127682174304562
 21
0.0
 40
1.00917
 50
277.91742
 51
11.537744
 73
     1
 72
     3
 10
30.858212209753653
 20
49.380523841334018
 11
8.3598487206155916
 21
0.0
 40
1.00917
 50
3.719705
 51
34.373528
 73
     1
 97
       65
330
31
330
32
330
34
330
35
330
38
330
39
330
3A
330
3B
330
3C
330
3D
330
3E
330
3F
330
40
330
41
330
42
330
43
330
45
330
46
330
48
330
49
330
4A
330
4B
330
4C
330
4D
330
4E
330
4F
330
50
330
51
330
52
330
53
330
55
330
56
330
58
330
59
330
5A
330
5B
330
5C
330
5D
330
5E
330
5F
330
60
330
61
330
62
330
63
330
66
330
6A
330
6E
330
72
330
76
330
7A
330
82
330
86
330
8B
330
8F
330
90
330
91
330
92
330
93
330
94
330
95
330
96
330
97
330
98
330
99
330
9A
 92
        1
 93
        5
 72
     3
 10
25.807305457592001
 20
40.808647083586216
 11
11.105307300678071
 21
0.0
 40
1.00917
 50
355.45369
 51
14.073594
 73
     0
 72
     3
 10
34.863551532466268
 20
38.510011912922288
 11
1.7670309337856822
 21
0.0
 40
1.00917
 50
13.840437
 51
50.711026
 73
     0
 72
     3
 10
37.064174082011775
 20
36.615429139767734
 11
1.1957774781722896
 21
0.0
 40
1.00917
 50
154.767418
 51
261.027052
 73
     1
 72
     3
 10
36.641744482054115
 20
37.135452206062183
 11
1.7127682174304351
 21
0.0
 40
1.00917
 50
277.91742
 51
11.537744
 73
     1
 72
     3
 10
29.977694877030132
 20
36.93385776472077
 11
8.3598187343122241
 21
0.0
 40
1.00917
 50
3.719649
 51
34.373584
 73
     1
 97
        5
330
9C
330
9D
330
9E
330
9F
330
A0
 92
        1
 93
        5
 72
     3
 10
31.675699588174609
 20
47.232738707174697
 11
11.105307300678083
 21
0.0
 40
1.00917
 50
355.45369
 51
14.073594
 73
     0
 72
     3
 10
40.731921432873783
 20
44.934113401359589
 11
1.7670567988722823
 21
0.0
 40
1.00917
 50
13.840557
 51
50.710697
 73
     0
 72
     3
 10
42.932562941488463
 20
43.039516785183018
 11
1.1957727622737873
 21
0.0
 40
1.00917
 50
154.767305
 51
261.027272
 73
     1
 72
     3
 10
42.510136344294231
 20
43.559548621112398
 11
1.7127732325501415
 21
0.0
 40
1.00917
 50
277.917474
 51
11.537548
 73
     1
 72
     3
 10
35.84610072677043
 20
43.357945774214414
 11
8.3598110835593182
 21
0.0
 40
1.00917
 50
3.719677
 51
34.37365
 73
     1
 97
        5
330
A1
330
A2
330
A3
330
A4
330
A5
 92
        1
 93
        5
 72
     3
 10
37.842514521255694
 20
52.753440608833245
 11
11.105283538249434
 21
0.0
 40
1.00917
 50
355.453669
 51
14.073614
 73
     0
 72
     3
 10
46.898657150985422
 20
50.454852515697297
 11
1.7671187570521023
 21
0.0
 40
1.00917
 50
13.841227
 51
50.710027
 73
     0
 72
     3
 10
49.099346419936104
 20
48.560216720215401
 11
1.1957676989396919
 21
0.0
 40
1.00917
 50
154.766982
 51
261.027596
 73
     1
 72
     3
 10
48.676929549279713
 20
49.08024774934956
 11
1.7127682174304413
 21
0.0
 40
1.00917
 50
277.91742
 51
11.537744
 73
     1
 72
     3
 10
42.012850554295674
 20
48.878643068435657
 11
8.3598487206155596
 21
0.0
 40
1.00917
 50
3.719705
 51
34.373528
 73
     1
 97
        5
330
A6
330
A7
330
A8
330
A9
330
AA
 92
        1
 93
        5
 72
     3
 10
41.423206364378906
 20
47.232738707174732
 11
11.10530730067843
 21
0.0
 40
1.00917
 50
355.45369
 51
14.073594
 73
     0
 72
     3
 10
50.479372990547034
 20
44.934148595998444
 11
1.7671187570521503
 21
0.0
 40
1.00917
 50
13.841227
 51
50.710027
 73
     0
 72
     3
 10
52.680062259497738
 20
43.039512800516505
 11
1.1957676989396859
 21
0.0
 40
1.00917
 50
154.766982
 51
261.027596
 73
     1
 72
     3
 10
52.257645388841382
 20
43.559543829650664
 11
1.7127682174304371
 21
0.0
 40
1.00917
 50
277.91742
 51
11.537744
 73
     1
 72
     3
 10
45.593566393857046
 20
43.357939148736655
 11
8.3598487206158545
 21
0.0
 40
1.00917
 50
3.719705
 51
34.373528
 73
     1
 97
        5
330
AB
330
AC
330
AD
330
AE
330
AF
 92
        1
 93
        5
 72
     3
 10
46.197518146899739
 20
53.656828312722816
 11
11.105283538249228
 21
0.0
 40
1.00917
 50
355.453669
 51
14.073614
 73
     0
 72
     3
 10
55.253660776629303
 20
51.358240219586861
 11
1.767118757052059
 21
0.0
 40
1.00917
 50
13.841227
 51
50.710027
 73
     0
 72
     3
 10
57.45435004557995
 20
49.463604424105007
 11
1.1957676989396901
 21
0.0
 40
1.00917
 50
154.766982
 51
261.027596
 73
     1
 72
     3
 10
57.031933174923594
 20
49.983635453239138
 11
1.7127682174304046
 21
0.0
 40
1.00917
 50
277.91742
 51
11.537744
 73
     1
 72
     3
 10
50.367854179939563
 20
49.782030772325257
 11
8.3598487206155134
 21
0.0
 40
1.00917
 50
3.719705
 51
34.373528
 73
     1
 97
        5
330
B0
330
B1
330
B2
330
B3
330
B4
 92
        1
 93
        5
 72
     3
 10
50.971781936542186
 20
47.232738707174796
 11
11.105307300679529
 21
0.0
 40
1.00917
 50
355.45369
 51
14.073594
 73
     0
 72
     3
 10
60.027948562711209
 20
44.934148595998614
 11
1.7671187570524185
 21
0.0
 40
1.00917
 50
13.841227
 51
50.710027
 73
     0
 72
     3
 10
62.228637831662155
 20
43.039512800516526
 11
1.195767698939703
 21
0.0
 40
1.00917
 50
154.766982
 51
261.027596
 73
     1
 72
     3
 10
61.806220961005799
 20
43.559543829650643
 11
1.7127682174304046
 21
0.0
 40
1.00917
 50
277.91742
 51
11.537744
 73
     1
 72
     3
 10
55.14214196602147
 20
43.357939148736691
 11
8.3598487206158065
 21
0.0
 40
1.00917
 50
3.719705
 51
34.373528
 73
     1
 97
        5
330
B5
330
B6
330
B7
330
B8
330
B9
 92
        1
 93
        5
 72
     3
 10
46.197494150461537
 20
40.00563707605798
 11
11.105307300677989
 21
0.0
 40
1.00917
 50
355.45369
 51
14.073594
 73
     0
 72
     3
 10
55.253660776629218
 20
37.707046964881741
 11
1.7671187570521663
 21
0.0
 40
1.00917
 50
13.841227
 51
50.710027
 73
     0
 72
     3
 10
57.45435004557995
 20
35.812411169399795
 11
1.1957676989396975
 21
0.0
 40
1.00917
 50
154.766982
 51
261.027596
 73
     1
 72
     3
 10
57.03193317492353
 20
36.332442198533968
 11
1.7127682174304646
 21
0.0
 40
1.00917
 50
277.91742
 51
11.537744
 73
     1
 72
     3
 10
50.367854179939563
 20
36.130837517620066
 11
8.3598487206155134
 21
0.0
 40
1.00917
 50
3.719705
 51
34.373528
 73
     1
 97
        5
330
BA
330
BB
330
BC
330
BD
330
BE
 92
        1
 93
        5
 72
     3
 10
37.842490524817485
 20
40.005637076058001
 11
11.105307300678204
 21
0.0
 40
1.00917
 50
355.45369
 51
14.073594
 73
     0
 72
     3
 10
46.898657150985343
 20
37.707046964881762
 11
1.7671187570522018
 21
0.0
 40
1.00917
 50
13.841227
 51
50.710027
 73
     0
 72
     3
 10
49.099346419936118
 20
35.812411169399809
 11
1.195767698939705
 21
0.0
 40
1.00917
 50
154.766982
 51
261.027596
 73
     1
 72
     3
 10
48.676929549279727
 20
36.332442198533954
 11
1.7127682174304395
 21
0.0
 40
1.00917
 50
277.91742
 51
11.537744
 73
     1
 72
     3
 10
42.012850554295511
 20
36.13083751761998
 11
8.3598487206157284
 21
0.0
 40
1.00917
 50
3.719705
 51
34.373528
 73
     1
 97
        5
330
BF
330
C0
330
C1
330
C2
330
C3
 75
     0
 76
     1
 98
        0
  0
ELLIPSE
  5
9C
102
{ACAD_REACTORS
330
9B
102
}
100
AcDbEntity
  8
0
  6
CONTINUOUS
 62
     7
100
AcDbEllipse
 10
25.807305
 20
40.808647
 30
0.0
 11
0.0
 21
-11.207142384776565
 31
0.0
210
0.0
220
0.0
230
1.0
 40
0.990913
 41
1.3251657761880506
 42
1.6501444136248573
  0
ELLIPSE
  5
9D
102
{ACAD_REACTORS
330
9B
102
}
100
AcDbEntity
  8
0
  6
CONTINUOUS
 62
     7
100
AcDbEllipse
 10
34.863552
 20
38.510012
 30
0.0
 11
0.0
 21
-1.783234514548891
 31
0.0
210
0.0
220
0.0
230
1.0
 40
0.990913
 41
0.6857219601586131
 42
1.3292351288557389
  0
ELLIPSE
  5
9E
102
{ACAD_REACTORS
330
9B
102
}
100
AcDbEntity
  8
0
  6
CONTINUOUS
 62
     7
100
AcDbEllipse
 10
37.064174
 20
36.615429
 30
0.0
 11
0.0
 21
-1.2067426947805091
 31
0.0
210
0.0
220
0.0
230
1.0
 40
0.990913
 41
4.2719973531146742
 42
6.1265778258733041
  0
ELLIPSE
  5
9F
102
{ACAD_REACTORS
330
9B
102
}
100
AcDbEntity
  8
0
  6
CONTINUOUS
 62
     7
100
AcDbEllipse
 10
36.641744
 20
37.135452
 30
0.0
 11
0.0
 21
-1.7284742119374592
 31
0.0
210
0.0
220
0.0
230
1.0
 40
0.990913
 41
0.1381850512444736
 42
1.7721679452952137
  0
ELLIPSE
  5
A0
102
{ACAD_REACTORS
330
9B
102
}
100
AcDbEntity
  8
0
  6
CONTINUOUS
 62
     7
100
AcDbEllipse
 10
29.977695
 20
36.933858
 30
0.0
 11
0.0
 21
-8.4364778325980492
 31
0.0
210
0.0
220
0.0
230
1.0
 40
0.990913
 41
1.6357164432181941
 42
2.1707285488338535
  0
ELLIPSE
  5
A1
102
{ACAD_REACTORS
330
9B
102
}
100
AcDbEntity
  8
0
  6
CONTINUOUS
 62
     7
100
AcDbEllipse
 10
31.6757
 20
47.232739
 30
0.0
 11
0.0
 21
-11.207142384776578
 31
0.0
210
0.0
220
0.0
230
1.0
 40
0.990913
 41
1.3251657761880504
 42
1.6501444136248569
  0
ELLIPSE
  5
A2
102
{ACAD_REACTORS
330
9B
102
}
100
AcDbEntity
  8
0
  6
CONTINUOUS
 62
     7
100
AcDbEllipse
 10
40.731921
 20
44.934113
 30
0.0
 11
0.0
 21
-1.7832606168169753
 31
0.0
210
0.0
220
0.0
230
1.0
 40
0.990913
 41
0.6857277011601739
 42
1.3292330377621975
  0
ELLIPSE
  5
A3
102
{ACAD_REACTORS
330
9B
102
}
100
AcDbEntity
  8
0
  6
CONTINUOUS
 62
     7
100
AcDbEllipse
 10
42.932563
 20
43.039517
 30
0.0
 11
0.0
 21
-1.2067379356374657
 31
0.0
210
0.0
220
0.0
230
1.0
 40
0.990913
 41
4.2719953812208225
 42
6.1265816658741645
  0
ELLIPSE
  5
A4
102
{ACAD_REACTORS
330
9B
102
}
100
AcDbEntity
  8
0
  6
CONTINUOUS
 62
     7
100
AcDbEllipse
 10
42.510136
 20
43.559549
 30
0.0
 11
0.0
 21
-1.7284792730455496
 31
0.0
210
0.0
220
0.0
230
1.0
 40
0.990913
 41
0.1381859811479624
 42
1.7721645183271142
  0
ELLIPSE
  5
A5
102
{ACAD_REACTORS
330
9B
102
}
100
AcDbEntity
  8
0
  6
CONTINUOUS
 62
     7
100
AcDbEllipse
 10
35.846101
 20
43.357946
 30
0.0
 11
0.0
 21
-8.4364701116881413
 31
0.0
210
0.0
220
0.0
230
1.0
 40
0.990913
 41
1.6357169320093599
 42
2.1707296938780152
  0
ELLIPSE
  5
A6
102
{ACAD_REACTORS
330
9B
102
}
100
AcDbEntity
  8
0
  6
CONTINUOUS
 62
     7
100
AcDbEllipse
 10
37.842515
 20
52.753441
 30
0.0
 11
0.0
 21
-11.207118404447707
 31
0.0
210
0.0
220
0.0
230
1.0
 40
0.990913
 41
1.3251654254103944
 42
1.6501447644025127
  0
ELLIPSE
  5
A7
102
{ACAD_REACTORS
330
9B
102
}
100
AcDbEntity
  8
0
  6
CONTINUOUS
 62
     7
100
AcDbEllipse
 10
46.898657
 20
50.454853
 30
0.0
 11
0.0
 21
-1.7833231431500469
 31
0.0
210
0.0
220
0.0
230
1.0
 40
0.990913
 41
0.6857393884516134
 42
1.329221350470781
  0
ELLIPSE
  5
A8
102
{ACAD_REACTORS
330
9B
102
}
100
AcDbEntity
  8
0
  6
CONTINUOUS
 62
     7
100
AcDbEllipse
 10
49.099346
 20
48.560217
 30
0.0
 11
0.0
 21
-1.2067328258728627
 31
0.0
210
0.0
220
0.0
230
1.0
 40
0.990913
 41
4.2719897353848078
 42
6.1265873117101748
  0
ELLIPSE
  5
A9
102
{ACAD_REACTORS
330
9B
102
}
100
AcDbEntity
  8
0
  6
CONTINUOUS
 62
     7
100
AcDbEllipse
 10
48.67693
 20
49.080248
 30
0.0
 11
0.0
 21
-1.7284742119374654
 31
0.0
210
0.0
220
0.0
230
1.0
 40
0.990913
 41
0.1381850512444793
 42
1.7721679452952124
  0
ELLIPSE
  5
AA
102
{ACAD_REACTORS
330
9B
102
}
100
AcDbEntity
  8
0
  6
CONTINUOUS
 62
     7
100
AcDbEllipse
 10
42.012851
 20
48.878643
 30
0.0
 11
0.0
 21
-8.4365080938742096
 31
0.0
210
0.0
220
0.0
230
1.0
 40
0.990913
 41
1.6357174263095839
 42
2.1707275657424612
  0
ELLIPSE
  5
AB
102
{ACAD_REACTORS
330
9B
102
}
100
AcDbEntity
  8
0
  6
CONTINUOUS
 62
     7
100
AcDbEllipse
 10
41.423206
 20
47.232739
 30
0.0
 11
0.0
 21
-11.207142384776928
 31
0.0
210
0.0
220
0.0
230
1.0
 40
0.990913
 41
1.3251657761880555
 42
1.6501444136248515
  0
ELLIPSE
  5
AC
102
{ACAD_REACTORS
330
9B
102
}
100
AcDbEntity
  8
0
  6
CONTINUOUS
 62
     7
100
AcDbEllipse
 10
50.479373
 20
44.934149
 30
0.0
 11
0.0
 21
-1.7833231431500958
 31
0.0
210
0.0
220
0.0
230
1.0
 40
0.990913
 41
0.6857393884516163
 42
1.329221350470764
  0
ELLIPSE
  5
AD
102
{ACAD_REACTORS
330
9B
102
}
100
AcDbEntity
  8
0
  6
CONTINUOUS
 62
     7
100
AcDbEllipse
 10
52.680062
 20
43.039513
 30
0.0
 11
0.0
 21
-1.2067328258728565
 31
0.0
210
0.0
220
0.0
230
1.0
 40
0.990913
 41
4.2719897353847962
 42
6.1265873117101854
  0
ELLIPSE
  5
AE
102
{ACAD_REACTORS
330
9B
102
}
100
AcDbEntity
  8
0
  6
CONTINUOUS
 62
     7
100
AcDbEllipse
 10
52.257645
 20
43.559544
 30
0.0
 11
0.0
 21
-1.7284742119374616
 31
0.0
210
0.0
220
0.0
230
1.0
 40
0.990913
 41
0.1381850512444731
 42
1.7721679452952159
  0
ELLIPSE
  5
AF
102
{ACAD_REACTORS
330
9B
102
}
100
AcDbEntity
  8
0
  6
CONTINUOUS
 62
     7
100
AcDbEllipse
 10
45.593566
 20
43.357939
 30
0.0
 11
0.0
 21
-8.4365080938745081
 31
0.0
210
0.0
220
0.0
230
1.0
 40
0.990913
 41
1.6357174263095957
 42
2.1707275657424532
  0
ELLIPSE
  5
B0
102
{ACAD_REACTORS
330
9B
102
}
100
AcDbEntity
  8
0
  6
CONTINUOUS
 62
     7
100
AcDbEllipse
 10
46.197518
 20
53.656828
 30
0.0
 11
0.0
 21
-11.207118404447503
 31
0.0
210
0.0
220
0.0
230
1.0
 40
0.990913
 41
1.3251654254103913
 42
1.6501447644025158
  0
ELLIPSE
  5
B1
102
{ACAD_REACTORS
330
9B
102
}
100
AcDbEntity
  8
0
  6
CONTINUOUS
 62
     7
100
AcDbEllipse
 10
55.253661
 20
51.35824
 30
0.0
 11
0.0
 21
-1.7833231431500032
 31
0.0
210
0.0
220
0.0
230
1.0
 40
0.990913
 41
0.6857393884516042
 42
1.3292213504707866
  0
ELLIPSE
  5
B2
102
{ACAD_REACTORS
330
9B
102
}
100
AcDbEntity
  8
0
  6
CONTINUOUS
 62
     7
100
AcDbEllipse
 10
57.45435
 20
49.463604
 30
0.0
 11
0.0
 21
-1.2067328258728605
 31
0.0
210
0.0
220
0.0
230
1.0
 40
0.990913
 41
4.2719897353848282
 42
6.1265873117101677
  0
ELLIPSE
  5
B3
102
{ACAD_REACTORS
330
9B
102
}
100
AcDbEntity
  8
0
  6
CONTINUOUS
 62
     7
100
AcDbEllipse
 10
57.031933
 20
49.983635
 30
0.0
 11
0.0
 21
-1.7284742119374286
 31
0.0
210
0.0
220
0.0
230
1.0
 40
0.990913
 41
0.1381850512444625
 42
1.7721679452952228
  0
ELLIPSE
  5
B4
102
{ACAD_REACTORS
330
9B
102
}
100
AcDbEntity
  8
0
  6
CONTINUOUS
 62
     7
100
AcDbEllipse
 10
50.367854
 20
49.782031
 30
0.0
 11
0.0
 21
-8.4365080938741634
 31
0.0
210
0.0
220
0.0
230
1.0
 40
0.990913
 41
1.6357174263095835
 42
2.170727565742463
  0
ELLIPSE
  5
B5
102
{ACAD_REACTORS
330
9B
102
}
100
AcDbEntity
  8
0
  6
CONTINUOUS
 62
     7
100
AcDbEllipse
 10
50.971782
 20
47.232739
 30
0.0
 11
0.0
 21
-11.207142384778036
 31
0.0
210
0.0
220
0.0
230
1.0
 40
0.990913
 41
1.3251657761880744
 42
1.650144413624838
  0
ELLIPSE
  5
B6
102
{ACAD_REACTORS
330
9B
102
}
100
AcDbEntity
  8
0
  6
CONTINUOUS
 62
     7
100
AcDbEllipse
 10
60.027949
 20
44.934149
 30
0.0
 11
0.0
 21
-1.7833231431503664
 31
0.0
210
0.0
220
0.0
230
1.0
 40
0.990913
 41
0.6857393884516511
 42
1.3292213504707011
  0
ELLIPSE
  5
B7
102
{ACAD_REACTORS
330
9B
102
}
100
AcDbEntity
  8
0
  6
CONTINUOUS
 62
     7
100
AcDbEllipse
 10
62.228638
 20
43.039513
 30
0.0
 11
0.0
 21
-1.2067328258728738
 31
0.0
210
0.0
220
0.0
230
1.0
 40
0.990913
 41
4.2719897353848211
 42
6.1265873117101721
  0
ELLIPSE
  5
B8
102
{ACAD_REACTORS
330
9B
102
}
100
AcDbEntity
  8
0
  6
CONTINUOUS
 62
     7
100
AcDbEllipse
 10
61.806221
 20
43.559544
 30
0.0
 11
0.0
 21
-1.7284742119374286
 31
0.0
210
0.0
220
0.0
230
1.0
 40
0.990913
 41
0.1381850512444625
 42
1.7721679452952328
  0
ELLIPSE
  5
B9
102
{ACAD_REACTORS
330
9B
102
}
100
AcDbEntity
  8
0
  6
CONTINUOUS
 62
     7
100
AcDbEllipse
 10
55.142142
 20
43.357939
 30
0.0
 11
0.0
 21
-8.4365080938744583
 31
0.0
210
0.0
220
0.0
230
1.0
 40
0.990913
 41
1.6357174263095917
 42
2.1707275657424518
  0
ELLIPSE
  5
BA
102
{ACAD_REACTORS
330
9B
102
}
100
AcDbEntity
  8
0
  6
CONTINUOUS
 62
     7
100
AcDbEllipse
 10
46.197494
 20
40.005637
 30
0.0
 11
0.0
 21
-11.207142384776485
 31
0.0
210
0.0
220
0.0
230
1.0
 40
0.990913
 41
1.3251657761880491
 42
1.6501444136248578
  0
ELLIPSE
  5
BB
102
{ACAD_REACTORS
330
9B
102
}
100
AcDbEntity
  8
0
  6
CONTINUOUS
 62
     7
100
AcDbEllipse
 10
55.253661
 20
37.707047
 30
0.0
 11
0.0
 21
-1.7833231431501115
 31
0.0
210
0.0
220
0.0
230
1.0
 40
0.990913
 41
0.6857393884516189
 42
1.3292213504707611
  0
ELLIPSE
  5
BC
102
{ACAD_REACTORS
330
9B
102
}
100
AcDbEntity
  8
0
  6
CONTINUOUS
 62
     7
100
AcDbEllipse
 10
57.45435
 20
35.812411
 30
0.0
 11
0.0
 21
-1.2067328258728682
 31
0.0
210
0.0
220
0.0
230
1.0
 40
0.990913
 41
4.2719897353848033
 42
6.1265873117101748
  0
ELLIPSE
  5
BD
102
{ACAD_REACTORS
330
9B
102
}
100
AcDbEntity
  8
0
  6
CONTINUOUS
 62
     7
100
AcDbEllipse
 10
57.031933
 20
36.332442
 30
0.0
 11
0.0
 21
-1.7284742119374885
 31
0.0
210
0.0
220
0.0
230
1.0
 40
0.990913
 41
0.1381850512444924
 42
1.7721679452952015
  0
ELLIPSE
  5
BE
102
{ACAD_REACTORS
330
9B
102
}
100
AcDbEntity
  8
0
  6
CONTINUOUS
 62
     7
100
AcDbEllipse
 10
50.367854
 20
36.130838
 30
0.0
 11
0.0
 21
-8.4365080938741634
 31
0.0
210
0.0
220
0.0
230
1.0
 40
0.990913
 41
1.6357174263095831
 42
2.170727565742463
  0
ELLIPSE
  5
BF
102
{ACAD_REACTORS
330
9B
102
}
100
AcDbEntity
  8
0
  6
CONTINUOUS
 62
     7
100
AcDbEllipse
 10
37.842491
 20
40.005637
 30
0.0
 11
0.0
 21
-11.207142384776699
 31
0.0
210
0.0
220
0.0
230
1.0
 40
0.990913
 41
1.3251657761880522
 42
1.6501444136248546
  0
ELLIPSE
  5
C0
102
{ACAD_REACTORS
330
9B
102
}
100
AcDbEntity
  8
0
  6
CONTINUOUS
 62
     7
100
AcDbEllipse
 10
46.898657
 20
37.707047
 30
0.0
 11
0.0
 21
-1.7833231431501473
 31
0.0
210
0.0
220
0.0
230
1.0
 40
0.990913
 41
0.6857393884516239
 42
1.3292213504707524
  0
ELLIPSE
  5
C1
102
{ACAD_REACTORS
330
9B
102
}
100
AcDbEntity
  8
0
  6
CONTINUOUS
 62
     7
100
AcDbEllipse
 10
49.099346
 20
35.812411
 30
0.0
 11
0.0
 21
-1.2067328258728758
 31
0.0
210
0.0
220
0.0
230
1.0
 40
0.990913
 41
4.2719897353848175
 42
6.1265873117101695
  0
ELLIPSE
  5
C2
102
{ACAD_REACTORS
330
9B
102
}
100
AcDbEntity
  8
0
  6
CONTINUOUS
 62
     7
100
AcDbEllipse
 10
48.67693
 20
36.332442
 30
0.0
 11
0.0
 21
-1.7284742119374636
 31
0.0
210
0.0
220
0.0
230
1.0
 40
0.990913
 41
0.1381850512444747
 42
1.7721679452952137
  0
ELLIPSE
  5
C3
102
{ACAD_REACTORS
330
9B
102
}
100
AcDbEntity
  8
0
  6
CONTINUOUS
 62
     7
100
AcDbEllipse
 10
42.012851
 20
36.130838
 30
0.0
 11
0.0
 21
-8.4365080938743802
 31
0.0
210
0.0
220
0.0
230
1.0
 40
0.990913
 41
1.6357174263095917
 42
2.1707275657424576
  0
ENDBLK
  5
C4
100
AcDbEntity
  8
0
100
AcDbBlockEnd
  0
BLOCK
  5
C6
100
AcDbEntity
  8
0
100
AcDbBlockBegin
  2
SONNE
 70
     0
 10
0.0
 20
0.0
 30
0.0
  3
SONNE
  1

  0
ELLIPSE
  5
C7
102
{ACAD_REACTORS
330
E3
102
}
100
AcDbEntity
  8
0
  6
CONTINUOUS
 62
     7
100
AcDbEllipse
 10
50.773315
 20
75.980743
 30
0.0
 11
-19.773330283598309
 21
-0.5181569175271219
 31
0.0
210
0.0
220
0.0
230
1.0
 40
0.675882
 41
0.4671656399978617
 42
1.1019028117787726
  0
ELLIPSE
  5
C8
102
{ACAD_REACTORS
330
E3
102
}
100
AcDbEntity
  8
0
  6
CONTINUOUS
 62
     7
100
AcDbEllipse
 10
27.063013
 20
24.505594
 30
0.0
 11
-8.2050815084442466
 21
-64.675283008621491
 31
0.0
210
0.0
220
0.0
230
1.0
 40
0.197357
 41
2.2490586138939559
 42
2.4619001008818078
  0
ELLIPSE
  5
C9
102
{ACAD_REACTORS
330
E3
102
}
100
AcDbEntity
  8
0
  6
CONTINUOUS
 62
     7
100
AcDbEllipse
 10
56.231933
 20
75.916681
 30
0.0
 11
14.615928643505503
 21
-4.5231657242512471
 31
0.0
210
0.0
220
0.0
230
1.0
 40
0.88288
 41
-2.6482903200865118
 42
-2.0117630223496685
  0
ELLIPSE
  5
CA
102
{ACAD_REACTORS
330
E3
102
}
100
AcDbEntity
  8
0
  6
CONTINUOUS
 62
     7
100
AcDbEllipse
 10
48.719902
 20
74.879664
 30
0.0
 11
-2.3369329535047632
 21
-8.7023208719145444
 31
0.0
210
0.0
220
0.0
230
1.0
 40
0.108084
 41
-0.0007623115496549
 42
1.5700340152456904
  0
ELLIPSE
  5
CB
102
{ACAD_REACTORS
330
E3
102
}
100
AcDbEntity
  8
0
  6
CONTINUOUS
 62
     7
100
AcDbEllipse
 10
51.778759
 20
74.913544
 30
0.0
 11
1.1543439217829394
 21
-8.5978775820129432
 31
0.0
210
0.0
220
0.0
230
1.0
 40
0.246709
 41
-1.5698294484982107
 42
0.0009668782964909
  0
ELLIPSE
  5
CC
102
{ACAD_REACTORS
330
E3
102
}
100
AcDbEntity
  8
0
  6
CONTINUOUS
 62
     7
100
AcDbEllipse
 10
31.276516
 20
100.936074
 30
0.0
 11
-1.1713109306983414
 21
-43.635670867033376
 31
0.0
210
0.0
220
0.0
230
1.0
 40
0.825797
 41
0.6769206293807731
 42
0.901307572160351
  0
LINE
  5
CD
102
{ACAD_REACTORS
330
E3
102
}
100
AcDbEntity
  8
0
  6
CONTINUOUS
 62
     7
100
AcDbLine
 10
58.805461
 20
73.097953
 30
0.0
 11
57.849829
 21
63.824597
 31
0.0
  0
ELLIPSE
  5
CE
102
{ACAD_REACTORS
330
E3
102
}
100
AcDbEntity
  8
0
  6
CONTINUOUS
 62
     7
100
AcDbEllipse
 10
48.81263
 20
78.659051
 30
0.0
 11
20.592847361152248
 21
-2.9719664378094248
 31
0.0
210
0.0
220
0.0
230
1.0
 40
0.759975
 41
-1.0101425357068747
 42
-0.5473272223255488
  0
ELLIPSE
  5
CF
102
{ACAD_REACTORS
330
E3
102
}
100
AcDbEntity
  8
0
  6
CONTINUOUS
 62
     7
100
AcDbEllipse
 10
62.938064
 20
50.625404
 30
0.0
 11
-5.3423497026589493
 21
-18.632445437756406
 31
0.0
210
0.0
220
0.0
230
1.0
 40
0.296533
 41
-2.6747203461062052
 42
-2.0424712731620742
  0
ELLIPSE
  5
D0
102
{ACAD_REACTORS
330
E3
102
}
100
AcDbEntity
  8
0
  6
CONTINUOUS
 62
     7
100
AcDbEllipse
 10
67.984251
 20
61.104132
 30
0.0
 11
-7.5445648045537723
 21
-0.6784337696762225
 31
0.0
210
0.0
220
0.0
230
1.0
 40
0.188244
 41
-0.0536256178322386
 42
1.7314815112237258
  0
ELLIPSE
  5
D1
102
{ACAD_REACTORS
330
E3
102
}
100
AcDbEntity
  8
0
  6
CONTINUOUS
 62
     7
100
AcDbEllipse
 10
91.09309
 20
54.490877
 30
0.0
 11
-34.191021880179591
 21
-7.0291542786510384
 31
0.0
210
0.0
220
0.0
230
1.0
 40
0.337577
 41
-0.95161787062112
 42
-0.6232456303257897
  0
ELLIPSE
  5
D2
102
{ACAD_REACTORS
330
E3
102
}
100
AcDbEntity
  8
0
  6
CONTINUOUS
 62
     7
100
AcDbEllipse
 10
73.424751
 20
57.355241
 30
0.0
 11
-12.0018474333807
 21
-0.0835515406992143
 31
0.0
210
0.0
220
0.0
230
1.0
 40
0.50692
 41
0.2926455720330392
 42
1.2778955777377901
  0
ELLIPSE
  5
D3
102
{ACAD_REACTORS
330
E3
102
}
100
AcDbEntity
  8
0
  6
CONTINUOUS
 62
     7
100
AcDbEllipse
 10
70.172014
 20
50.097261
 30
0.0
 11
-9.7282412014448081
 21
-1.2214593857578915
 31
0.0
210
0.0
220
0.0
230
1.0
 40
0.144773
 41
-1.571291920651352
 42
-0.0004955938568062
  0
ELLIPSE
  5
D4
102
{ACAD_REACTORS
330
E3
102
}
100
AcDbEntity
  8
0
  6
CONTINUOUS
 62
     7
100
AcDbEllipse
 10
83.823092
 20
48.659327
 30
0.0
 11
24.566676409479793
 21
-9.3425281299340845
 31
0.0
210
0.0
220
0.0
230
1.0
 40
0.559609
 41
-2.5577766575974978
 42
-2.147738921620439
  0
ELLIPSE
  5
D5
102
{ACAD_REACTORS
330
E3
102
}
100
AcDbEntity
  8
0
  6
CONTINUOUS
 62
     7
100
AcDbEllipse
 10
72.260793
 20
42.935716
 30
0.0
 11
15.060497378433963
 21
-2.6521327634583689
 31
0.0
210
0.0
220
0.0
230
1.0
 40
0.125911
 41
-2.823854535000752
 42
-1.9742505997053053
  0
ELLIPSE
  5
D6
102
{ACAD_REACTORS
330
E3
102
}
100
AcDbEntity
  8
0
  6
CONTINUOUS
 62
     7
100
AcDbEllipse
 10
173.146712
 20
64.845602
 30
0.0
 11
-79.13308065842493
 21
-103.83464826505289
 31
0.0
210
0.0
220
0.0
230
1.0
 40
0.808714
 41
-0.8538842781932078
 42
-0.7762358286639093
  0
ELLIPSE
  5
D7
102
{ACAD_REACTORS
330
E3
102
}
100
AcDbEntity
  8
0
  6
CONTINUOUS
 62
     7
100
AcDbEllipse
 10
41.644822
 20
40.016314
 30
0.0
 11
16.127544262897757
 21
-8.3551368751193689
 31
0.0
210
0.0
220
0.0
230
1.0
 40
0.454425
 41
0.4410502517159098
 42
1.1284668315441322
  0
ELLIPSE
  5
D8
102
{ACAD_REACTORS
330
E3
102
}
100
AcDbEntity
  8
0
  6
CONTINUOUS
 62
     7
100
AcDbEllipse
 10
51.48251
 20
34.511495
 30
0.0
 11
-0.496354251311032
 21
-8.5518947719553733
 31
0.0
210
0.0
220
0.0
230
1.0
 40
0.213284
 41
-3.1419533714203003
 42
-1.5711570446252656
  0
ELLIPSE
  5
D9
102
{ACAD_REACTORS
330
E3
102
}
100
AcDbEntity
  8
0
  6
CONTINUOUS
 62
     7
100
AcDbEllipse
 10
48.506105
 20
34.772032
 30
0.0
 11
2.0238577778085931
 21
-9.1958791735162517
 31
0.0
210
0.0
220
0.0
230
1.0
 40
0.11619
 41
-4.7544346208179782
 42
-3.0375825176330107
  0
ELLIPSE
  5
DA
102
{ACAD_REACTORS
330
E3
102
}
100
AcDbEntity
  8
0
  6
CONTINUOUS
 62
     7
100
AcDbEllipse
 10
49.161887
 20
41.236502
 30
0.0
 11
-9.1861198155827619
 21
-4.638147793095281
 31
0.0
210
0.0
220
0.0
230
1.0
 40
0.355026
 41
-1.4457353493882172
 42
-0.1782757070564653
  0
ELLIPSE
  5
DB
102
{ACAD_REACTORS
330
E3
102
}
100
AcDbEntity
  8
0
  6
CONTINUOUS
 62
     7
100
AcDbEllipse
 10
24.709855
 20
71.508457
 30
0.0
 11
6.6210429911087294
 21
-45.327770573892217
 31
0.0
210
0.0
220
0.0
230
1.0
 40
0.354676
 41
0.6637203870860448
 42
0.910321174687514
  0
ELLIPSE
  5
DC
102
{ACAD_REACTORS
330
E3
102
}
100
AcDbEntity
  8
0
  6
CONTINUOUS
 62
     7
100
AcDbEllipse
 10
37.350808
 20
44.380689
 30
0.0
 11
-4.432987668989961
 21
-1.348368381962447
 31
0.0
210
0.0
220
0.0
230
1.0
 40
0.042146
 41
-3.534611215937407
 42
0.3923796010499494
  0
ELLIPSE
  5
DD
102
{ACAD_REACTORS
330
E3
102
}
100
AcDbEntity
  8
0
  6
CONTINUOUS
 62
     7
100
AcDbEllipse
 10
15.273148
 20
47.969483
 30
0.0
 11
-23.011842898895978
 21
-10.815626952605482
 31
0.0
210
0.0
220
0.0
230
1.0
 40
0.5737
 41
2.1636400378995275
 42
2.6001133828352829
  0
ELLIPSE
  5
DE
102
{ACAD_REACTORS
330
E3
102
}
100
AcDbEntity
  8
0
  6
CONTINUOUS
 62
     7
100
AcDbEllipse
 10
26.051445
 20
48.322658
 30
0.0
 11
-12.290944893423084
 21
-1.7929770795433428
 31
0.0
210
0.0
220
0.0
230
1.0
 40
0.209987
 41
-3.0122325531247469
 42
-1.9283168970255433
  0
ELLIPSE
  5
DF
102
{ACAD_REACTORS
330
E3
102
}
100
AcDbEntity
  8
0
  6
CONTINUOUS
 62
     7
100
AcDbEllipse
 10
29.741607
 20
52.151975
 30
0.0
 11
-7.8261757801424565
 21
-3.3140036676321332
 31
0.0
210
0.0
220
0.0
230
1.0
 40
0.096817
 41
-4.7203684605105227
 42
-3.0528321575650335
  0
ELLIPSE
  5
E0
102
{ACAD_REACTORS
330
E3
102
}
100
AcDbEntity
  8
0
  6
CONTINUOUS
 62
     7
100
AcDbEllipse
 10
22.920217
 20
47.161357
 30
0.0
 11
-17.3787697000399
 21
-1.8272832800034338
 31
0.0
210
0.0
220
0.0
230
1.0
 40
0.818641
 41
-2.6472340774835135
 42
-2.0746022193968932
  0
ELLIPSE
  5
E1
102
{ACAD_REACTORS
330
E3
102
}
100
AcDbEntity
  8
0
  6
CONTINUOUS
 62
     7
100
AcDbEllipse
 10
32.727842
 20
69.032724
 30
0.0
 11
20.314678579350449
 21
-0.9228190073316536
 31
0.0
210
0.0
220
0.0
230
1.0
 40
0.42795
 41
-1.6860192230403681
 42
-1.2440686071142644
  0
ELLIPSE
  5
E2
102
{ACAD_REACTORS
330
E3
102
}
100
AcDbEntity
  8
0
  6
CONTINUOUS
 62
     7
100
AcDbEllipse
 10
14.181286
 20
69.664259
 30
0.0
 11
24.679519323085128
 21
-18.761295522801927
 31
0.0
210
0.0
220
0.0
230
1.0
 40
0.423739
 41
0.6216308051948951
 42
1.0546054896226196
  0
HATCH
  5
E3
100
AcDbEntity
  8
0
 62
     2
100
AcDbHatch
 10
0.0
 20
0.0
 30
0.0
210
0.0
220
0.0
230
1.0
  2
SOLID
 70
     1
 71
     1
 91
        1
 92
        1
 93
       28
 72
     3
 10
50.773314884136198
 20
75.980743221321248
 11
-19.773330283598309
 21
-0.5181569175271219
 40
0.675882
 50
26.76662
 51
63.134381
 73
     1
 72
     3
 10
27.063013028886093
 20
24.505593749233874
 11
-8.2050815084442466
 21
-64.675283008621491
 40
0.197357
 50
128.861566
 51
141.056485
 73
     1
 72
     3
 10
56.231933369390632
 20
75.916681434013242
 11
14.615928643505503
 21
-4.5231657242512471
 40
0.88288
 50
208.264142
 51
244.734469
 73
     1
 72
     3
 10
48.719901851401531
 20
74.879663664662559
 11
-2.3369329535047632
 21
-8.7023208719145444
 40
0.108084
 50
359.956323
 51
89.956323
 73
     1
 72
     3
 10
51.778759285284252
 20
74.913544383382927
 11
1.1543439217829394
 21
-8.5978775820129432
 40
0.246709
 50
270.055398
 51
0.055398
 73
     1
 72
     3
 10
31.276515823036501
 20
100.93607448728307
 11
-1.1713109306983414
 21
-43.635670867033376
 40
0.825797
 50
38.784695
 51
51.64112
 73
     1
 72
     1
 10
58.805460750853221
 20
73.097953094962989
 11
57.849829351535845
 21
63.824596693578954
 72
     3
 10
48.812630340119689
 20
78.659050815998839
 11
20.592847361152248
 21
-2.9719664378094248
 40
0.759975
 50
302.123096
 51
328.64046
 73
     1
 72
     3
 10
62.938063979816363
 20
50.625404428803904
 11
-5.3423497026589493
 21
-18.632445437756406
 40
0.296533
 50
206.749813
 51
242.975016
 73
     1
 72
     3
 10
67.984250729362287
 20
61.104132350005905
 11
-7.5445648045537723
 21
-0.6784337696762225
 40
0.188244
 50
356.927478
 51
99.206583
 73
     1
 72
     3
 10
91.093090062071525
 20
54.490877421105964
 11
-34.191021880179591
 21
-7.0291542786510384
 40
0.337577
 50
305.476312
 51
324.290656
 73
     1
 72
     3
 10
73.424751040253966
 20
57.355240860995856
 11
-12.0018474333807
 21
-0.0835515406992143
 40
0.50692
 50
16.767356
 51
73.218023
 73
     1
 72
     3
 10
70.172013651879567
 20
50.097261053440498
 11
-9.7282412014448081
 21
-1.2214593857578915
 40
0.144773
 50
269.971605
 51
359.971605
 73
     1
 72
     3
 10
83.82309198500009
 20
48.659327061469213
 11
24.566676409479793
 21
-9.3425281299340845
 40
0.559609
 50
213.450193
 51
236.943624
 73
     1
 72
     3
 10
72.260793154826047
 20
42.935715858564528
 11
15.060497378433963
 21
-2.6521327634583689
 40
0.125911
 50
113.116227
 51
161.794947
 73
     0
 72
     3
 10
173.1467118793114
 20
64.845601890042929
 11
-79.13308065842493
 21
-103.83464826505289
 40
0.808714
 50
311.076035
 51
315.524963
 73
     1
 72
     3
 10
41.644822316912723
 20
40.016313779144632
 11
16.127544262897757
 21
-8.3551368751193689
 40
0.454425
 50
25.270318
 51
64.656387
 73
     1
 72
     3
 10
51.482510020982573
 20
34.511494990520497
 11
-0.496354251311032
 21
-8.5518947719553733
 40
0.213284
 50
179.979332
 51
269.979332
 73
     1
 72
     3
 10
48.506104826882719
 20
34.772032067594509
 11
2.0238577778085931
 21
-9.1958791735162517
 40
0.11619
 50
87.590962
 51
185.959342
 73
     1
 72
     3
 10
49.16188722720846
 20
41.236502282061672
 11
-9.1861198155827619
 21
-4.638147793095281
 40
0.355026
 50
277.165466
 51
349.785554
 73
     1
 72
     3
 10
24.709854891002781
 20
71.508457286712101
 11
6.6210429911087294
 21
-45.327770573892217
 40
0.354676
 50
38.028377
 51
52.157561
 73
     1
 72
     3
 10
37.350808179399877
 20
44.380689005407987
 11
-4.432987668989961
 21
-1.348368381962447
 40
0.042146
 50
157.481695
 51
22.481695
 73
     1
 72
     3
 10
15.273148108853462
 20
47.969482521549345
 11
-23.011842898895978
 21
-10.815626952605482
 40
0.5737
 50
123.967443
 51
148.975523
 73
     1
 72
     3
 10
26.051445117359012
 20
48.322657657918761
 11
-12.290944893423084
 21
-1.7929770795433428
 40
0.209987
 50
187.411788
 51
249.51558
 73
     1
 72
     3
 10
29.741606932356504
 20
52.151974687741863
 11
-7.8261757801424565
 21
-3.3140036676321332
 40
0.096817
 50
89.542809
 51
185.085602
 73
     1
 72
     3
 10
22.920217082829456
 20
47.161357194441194
 11
-17.3787697000399
 21
-1.8272832800034338
 40
0.818641
 50
208.32466
 51
241.134049
 73
     1
 72
     3
 10
32.72784197586072
 20
69.03272398416533
 11
20.314678579350449
 21
-0.9228190073316536
 40
0.42795
 50
263.398214
 51
288.720119
 73
     1
 72
     3
 10
14.181285504758225
 20
69.664258797481111
 11
24.679519323085128
 21
-18.761295522801927
 40
0.423739
 50
35.616822
 51
60.424444
 73
     1
 97
       28
330
C7
330
C8
330
C9
330
CA
330
CB
330
CC
330
CD
330
CE
330
CF
330
D0
330
D1
330
D2
330
D3
330
D4
330
D5
330
D6
330
D7
330
D8
330
D9
330
DA
330
DB
330
DC
330
DD
330
DE
330
DF
330
E0
330
E1
330
E2
 75
     0
 76
     1
 98
        0
  0
ELLIPSE
  5
E4
102
{ACAD_REACTORS
330
E6
102
}
100
AcDbEntity
  8
0
  6
CONTINUOUS
 62
     7
100
AcDbEllipse
 10
49.658703
 20
54.689649
 30
0.0
 11
11.467576791808877
 21
0.0
 31
0.0
210
0.0
220
0.0
230
1.0
 40
0.941424
 41
-0.0000000000000001
 42
3.1415926535898073
  0
ELLIPSE
  5
E5
102
{ACAD_REACTORS
330
E6
102
}
100
AcDbEntity
  8
0
  6
CONTINUOUS
 62
     7
100
AcDbEllipse
 10
49.658703
 20
54.689649
 30
0.0
 11
11.467576791808877
 21
0.0
 31
0.0
210
0.0
220
0.0
230
1.0
 40
0.941424
 41
3.1415926535897931
 42
6.2831853071796004
  0
HATCH
  5
E6
100
AcDbEntity
  8
0
 62
     2
100
AcDbHatch
 10
0.0
 20
0.0
 30
0.0
210
0.0
220
0.0
230
1.0
  2
SOLID
 70
     1
 71
     1
 91
        1
 92
        1
 93
        2
 72
     3
 10
49.658703071672363
 20
54.689648596693154
 11
11.467576791808877
 21
0.0
 40
0.941424
 50
180.0
 51
0.0
 73
     0
 72
     3
 10
49.658703071672363
 20
54.689648596693154
 11
11.467576791808877
 21
0.0
 40
0.941424
 50
360.0
 51
540.0
 73
     0
 97
        2
330
E4
330
E5
 75
     0
 76
     1
 98
        0
  0
ENDBLK
  5
E7
100
AcDbEntity
  8
0
100
AcDbBlockEnd
  0
BLOCK
  5
E9
100
AcDbEntity
  8
0
100
AcDbBlockBegin
  2
PARK
 70
     0
 10
0.0
 20
0.0
 30
0.0
  3
PARK
  1

  0
LWPOLYLINE
  5
EA
102
{ACAD_REACTORS
330
EC
102
}
100
AcDbEntity
  8
0
  6
CONTINUOUS
 62
     7
100
AcDbPolyline
 90
        8
 70
     1
 10
65.999999
 20
34.451111
 42
0.414214
 10
69.999999
 20
38.451112
 10
69.999999
 20
70.451111
 42
0.414214
 10
65.999999
 20
74.451111
 10
34.0
 20
74.451111
 42
0.414214
 10
30.0
 20
70.451111
 10
30.0
 20
38.451112
 42
0.414214
 10
34.0
 20
34.451111
  0
LWPOLYLINE
  5
EB
102
{ACAD_REACTORS
330
EC
102
}
100
AcDbEntity
  8
0
  6
CONTINUOUS
 62
     7
100
AcDbPolyline
 90
        4
 70
     1
 10
46.795254
 20
49.032724
 10
65.222656
 20
49.032724
 10
65.222656
 20
49.872068
 10
46.795254
 20
49.872068
  0
HATCH
  5
EC
100
AcDbEntity
  8
0
 62
     7
100
AcDbHatch
 10
0.0
 20
0.0
 30
0.0
210
0.0
220
0.0
230
1.0
  2
SOLID
 70
     1
 71
     1
 91
        2
 92
        3
 72
     0
 73
     1
 93
        4
 10
46.795253906249997
 20
49.032724210325284
 10
65.22265625
 20
49.032724210325284
 10
65.22265625
 20
49.872067588301469
 10
46.795253906249997
 20
49.872067588301469
 97
        2
330
EA
330
EB
 92
        3
 72
     0
 73
     1
 93
        4
 10
50.145690696022726
 20
52.390097722230038
 10
61.872219460227264
 20
52.390097722230038
 10
61.872219460227264
 20
53.229441100206223
 10
50.145690696022726
 20
53.229441100206223
 97
        1
330
ED
 75
     0
 76
     1
 98
        0
  0
LWPOLYLINE
  5
ED
102
{ACAD_REACTORS
330
EC
102
}
100
AcDbEntity
  8
0
  6
CONTINUOUS
 62
     7
100
AcDbPolyline
 90
        4
 70
     1
 10
50.145691
 20
52.390098
 10
61.872219
 20
52.390098
 10
61.872219
 20
53.229441
 10
50.145691
 20
53.229441
  0
LWPOLYLINE
  5
EE
102
{ACAD_REACTORS
330
EF
102
}
100
AcDbEntity
  8
0
  6
CONTINUOUS
 62
     7
100
AcDbPolyline
 90
        4
 70
     1
 10
51.820909
 20
52.390098
 10
53.496127
 20
52.390098
 10
50.145691
 20
44.836007
 10
48.470472
 20
44.836007
  0
HATCH
  5
EF
100
AcDbEntity
  8
0
 62
     7
100
AcDbHatch
 10
0.0
 20
0.0
 30
0.0
210
0.0
220
0.0
230
1.0
  2
SOLID
 70
     1
 71
     1
 91
        2
 92
        3
 72
     0
 73
     1
 93
        4
 10
51.820909090909083
 20
52.390097722230038
 10
53.496127485795448
 20
52.390097722230038
 10
50.145690696022726
 20
44.836007320444331
 10
48.470472301136361
 20
44.836007320444331
 97
        1
330
EE
 92
        3
 72
     0
 73
     1
 93
        4
 10
60.197001065340899
 20
52.390097722230038
 10
58.521782670454535
 20
52.390097722230038
 10
61.872219460227264
 20
44.836007320444331
 10
63.547437855113628
 20
44.836007320444331
 97
        1
330
F0
 75
     0
 76
     1
 98
        0
  0
LWPOLYLINE
  5
F0
102
{ACAD_REACTORS
330
EF
102
}
100
AcDbEntity
  8
0
  6
CONTINUOUS
 62
     7
100
AcDbPolyline
 90
        4
 70
     1
 10
60.197001
 20
52.390098
 10
58.521783
 20
52.390098
 10
61.872219
 20
44.836007
 10
63.547438
 20
44.836007
  0
LWPOLYLINE
  5
F1
102
{ACAD_REACTORS
330
F2
102
}
100
AcDbEntity
  8
0
  6
CONTINUOUS
 62
     7
100
AcDbPolyline
 90
       15
 70
     1
 10
39.905008
 20
66.201111
 10
37.213005
 20
61.572006
 10
38.054256
 20
61.750048
 10
35.194002
 20
55.874644
 10
36.540004
 20
56.23073
 10
33.175
 20
48.752943
 10
38.559006
 20
49.129473
 10
38.559006
 20
44.836007
 10
40.914509
 20
44.836007
 10
40.914509
 20
49.129473
 10
46.635016
 20
48.752943
 10
43.270012
 20
56.586815
 10
44.616013
 20
56.23073
 10
41.75576
 20
61.750048
 10
42.597011
 20
61.572006
  0
HATCH
  5
F2
100
AcDbEntity
  8
0
 62
     7
100
AcDbHatch
 10
0.0
 20
0.0
 30
0.0
210
0.0
220
0.0
230
1.0
  2
SOLID
 70
     1
 71
     1
 91
        1
 92
        3
 72
     0
 73
     1
 93
       15
 10
39.905007812500003
 20
66.20111148711095
 10
37.213004687499996
 20
61.572005584333191
 10
38.054255664062502
 20
61.7500481190554
 10
35.19400234375
 20
55.874644473222091
 10
36.54000390625
 20
56.230729542666538
 10
33.175000000000004
 20
48.752943084333211
 10
38.559006250000003
 20
49.129473229535229
 10
38.559006250000003
 20
44.836007320444331
 10
40.914508984375004
 20
44.836007320444331
 10
40.914508984375004
 20
49.129473229535222
 10
46.635015624999994
 20
48.752943084333211
 10
43.270011718749998
 20
56.586814612110977
 10
44.616013281250005
 20
56.230729542666538
 10
41.755759960937503
 20
61.7500481190554
 10
42.597010937500002
 20
61.572005584333191
 97
        1
330
F1
 75
     0
 76
     1
 98
        0
  0
ENDBLK
  5
F3
100
AcDbEntity
  8
0
100
AcDbBlockEnd
  0
BLOCK
  5
F5
100
AcDbEntity
  8
0
100
AcDbBlockBegin
  2
QUADR__FELD
 70
     0
 10
0.0
 20
0.0
 30
0.0
  3
QUADR__FELD
  1

  0
LWPOLYLINE
  5
F6
102
{ACAD_REACTORS
330
FB
102
}
100
AcDbEntity
  8
0
  6
CONTINUOUS
 62
     7
100
AcDbPolyline
 90
        8
 70
     1
 10
65.999999
 20
34.451111
 42
0.414214
 10
69.999999
 20
38.451112
 10
69.999999
 20
70.451111
 42
0.414214
 10
65.999999
 20
74.451111
 10
34.0
 20
74.451111
 42
0.414214
 10
30.0
 20
70.451111
 10
30.0
 20
38.451112
 42
0.414214
 10
34.0
 20
34.451111
  0
ENDBLK
  5
F7
100
AcDbEntity
  8
0
100
AcDbBlockEnd
  0
BLOCK
  5
F9
100
AcDbEntity
  8
0
100
AcDbBlockBegin
  2
RADIOAKTIV
 70
     0
 10
0.0
 20
0.0
 30
0.0
  3
RADIOAKTIV
  1

  0
LWPOLYLINE
  5
FA
102
{ACAD_REACTORS
330
FB
102
}
100
AcDbEntity
  8
0
  6
CONTINUOUS
 62
     7
100
AcDbPolyline
 90
        8
 70
     1
 10
65.999999
 20
34.451111
 42
0.414214
 10
69.999999
 20
38.451112
 10
69.999999
 20
70.451111
 42
0.414214
 10
65.999999
 20
74.451111
 10
34.0
 20
74.451111
 42
0.414214
 10
30.0
 20
70.451111
 10
30.0
 20
38.451112
 42
0.414214
 10
34.0
 20
34.451111
  0
HATCH
  5
FB
100
AcDbEntity
  8
0
 62
     2
100
AcDbHatch
 10
0.0
 20
0.0
 30
0.0
210
0.0
220
0.0
230
1.0
  2
SOLID
 70
     1
 71
     1
 91
        1
 92
        3
 72
     1
 73
     1
 93
        8
 10
65.999999119999998
 20
34.451111487111014
 42
0.4142135491182574
 10
69.999999247999995
 20
38.45111161511101
 42
0.0
 10
69.999999247999995
 20
70.451110607111005
 42
0.4142135491182588
 10
65.999999119999998
 20
74.451110735111001
 42
0.0
 10
34.000000127999996
 20
74.451110735111016
 42
0.4142135495988454
 10
30.0
 20
70.451110607111005
 42
0.0
 10
30.0
 20
38.451111615111017
 42
0.4142135491182578
 10
34.000000128000003
 20
34.451111487111014
 42
0.0
 97
        2
330
F6
330
FA
 75
     0
 76
     1
 98
        0
  0
LWPOLYLINE
  5
FC
102
{ACAD_REACTORS
330
FD
102
}
100
AcDbEntity
  8
0
  6
CONTINUOUS
 62
     7
100
AcDbPolyline
 90
        4
 70
     1
 10
46.8
 20
61.065472
 10
42.0
 20
69.379314
 42
0.267949
 10
33.999999
 20
55.522909
 10
43.600001
 20
55.522909
 42
-0.267949
  0
HATCH
  5
FD
100
AcDbEntity
  8
0
 62
     7
100
AcDbHatch
 10
0.0
 20
0.0
 30
0.0
210
0.0
220
0.0
230
1.0
  2
SOLID
 70
     1
 71
     1
 91
        4
 92
        3
 72
     1
 73
     1
 93
        4
 10
46.800000304000001
 20
61.065471639110967
 42
0.0
 10
41.999999744
 20
69.37931429511103
 42
0.2679491729043174
 10
33.999999488000007
 20
55.522909191110976
 42
0.0
 10
43.600000608000002
 20
55.522909191110877
 42
-0.2679492534191114
 97
        1
330
FC
 92
        3
 72
     1
 73
     1
 93
        4
 10
58.000000256000007
 20
69.379314295111016
 42
0.0
 10
53.199999695999999
 20
61.065471639110974
 42
-0.2679492534191068
 10
56.399999391999998
 20
55.522909191110976
 42
0.0
 10
66.000000512
 20
55.522909191110983
 42
0.2679491729043167
 97
        1
330
FE
 92
        3
 72
     1
 73
     1
 93
        4
 10
46.800000304000001
 20
49.980344711110988
 42
0.0
 10
41.999999744
 20
41.666502055110996
 42
0.2679491634256227
 10
58.000000256000007
 20
41.666502055110996
 42
0.0
 10
53.199999695999999
 20
49.98034471111098
 42
-0.2679490704551648
 97
        1
330
FF
 92
        3
 72
     1
 73
     1
 93
        2
 10
45.999999872000004
 20
55.522909191110976
 42
-0.9999999999999963
 10
54.000000127999996
 20
55.522909191110976
 42
-1.0000000000000071
 97
        1
330
100
 75
     0
 76
     1
 98
        0
  0
LWPOLYLINE
  5
FE
102
{ACAD_REACTORS
330
FD
102
}
100
AcDbEntity
  8
0
  6
CONTINUOUS
 62
     7
100
AcDbPolyline
 90
        4
 70
     1
 10
58.0
 20
69.379314
 10
53.2
 20
61.065472
 42
-0.267949
 10
56.399999
 20
55.522909
 10
66.000001
 20
55.522909
 42
0.267949
  0
LWPOLYLINE
  5
FF
102
{ACAD_REACTORS
330
FD
102
}
100
AcDbEntity
  8
0
  6
CONTINUOUS
 62
     7
100
AcDbPolyline
 90
        4
 70
     1
 10
46.8
 20
49.980345
 10
42.0
 20
41.666502
 42
0.267949
 10
58.0
 20
41.666502
 10
53.2
 20
49.980345
 42
-0.267949
  0
LWPOLYLINE
  5
100
102
{ACAD_REACTORS
330
FD
102
}
100
AcDbEntity
  8
0
  6
CONTINUOUS
 62
     7
100
AcDbPolyline
 90
        2
 70
     1
 10
46.0
 20
55.522909
 42
-1.0
 10
54.0
 20
55.522909
 42
-1.0
  0
ENDBLK
  5
101
100
AcDbEntity
  8
0
100
AcDbBlockEnd
  0
BLOCK
  5
103
100
AcDbEntity
  8
0
100
AcDbBlockBegin
  2
CIRCLE_18
 70
     0
 10
0.0
 20
0.0
 30
0.0
  3
CIRCLE_18
  1

  0
LWPOLYLINE
  5
104
102
{ACAD_REACTORS
330
105
102
}
100
AcDbEntity
  8
0
  6
CONTINUOUS
 62
     7
100
AcDbPolyline
 90
        5
 70
     1
 10
25.0
 20
120.0
 10
17.704373
 20
106.893748
 10
29.163499
 20
100.514999
 42
0.797081
 10
44.814402
 20
117.904891
 10
37.268002
 20
128.631114
  0
HATCH
  5
105
100
AcDbEntity
  8
0
 62
   252
100
AcDbHatch
 10
0.0
 20
0.0
 30
0.0
210
0.0
220
0.0
230
1.0
  2
SOLID
 70
     1
 71
     1
 91
        1
 92
        3
 72
     1
 73
     1
 93
        5
 10
25.0
 20
119.99999999999996
 42
0.0
 10
17.704373472035872
 20
106.89374830226174
 42
0.0
 10
29.163498777628817
 20
100.51499864180953
 42
0.7970813609866384
 10
44.814401774857672
 20
117.90489086095319
 42
0.0
 10
37.268002218571915
 20
128.6311135761913
 42
0.0
 97
        1
330
104
 75
     0
 76
     1
 98
        0
  0
LWPOLYLINE
  5
106
102
{ACAD_REACTORS
330
111
102
}
100
AcDbEntity
  8
0
  6
CONTINUOUS
 62
     7
100
AcDbPolyline
 90
        2
 70
     1
 10
10.0
 20
120.0
 42
1.0
 10
40.0
 20
120.0
 42
1.0
  0
ENDBLK
  5
107
100
AcDbEntity
  8
0
100
AcDbBlockEnd
  0
BLOCK
  5
109
100
AcDbEntity
  8
0
100
AcDbBlockBegin
  2
BESCHRIFTUNG
 70
     0
 10
0.0
 20
0.0
 30
0.0
  3
BESCHRIFTUNG
  1

  0
LINE
  5
10A
100
AcDbEntity
  8
0
  6
CONTINUOUS
 62
     7
100
AcDbLine
 10
50.0
 20
60.0
 30
0.0
 11
25.0
 21
40.0
 31
0.0
  0
MTEXT
  5
10B
100
AcDbEntity
  8
0
100
AcDbMText
 10
62.5
 20
60.0
 30
0.0
 40
2.054647
 41
25.0
 71
     5
 72
     5
  1
\C7;\fArial|b0|i0|;\H2.0546471100301;Seitliche \PAuswahlpunkte \Pziehen, um die \PTextblockbreite \Pzu \U+00E4ndern.
  0
ENDBLK
  5
10C
100
AcDbEntity
  8
0
100
AcDbBlockEnd
  0
BLOCK
  5
10E
100
AcDbEntity
  8
0
100
AcDbBlockBegin
  2
GEBOGENER_PFEIL
 70
     0
 10
0.0
 20
0.0
 30
0.0
  3
GEBOGENER_PFEIL
  1

  0
ARC
  5
10F
100
AcDbEntity
  8
0
  6
CONTINUOUS
 62
     7
100
AcDbCircle
 10
50.0
 20
36.25
 30
0.0
 40
16.25
100
AcDbArc
 50
27.910586
 51
152.089414
  0
LWPOLYLINE
  5
110
102
{ACAD_REACTORS
330
111
102
}
100
AcDbEntity
  8
0
  6
CONTINUOUS
 62
     7
100
AcDbPolyline
 90
        4
 70
     1
 10
35.640214
 20
43.856513
 10
36.31847
 20
43.536406
 10
35.0
 20
42.5
 10
34.961957
 20
44.176619
  0
HATCH
  5
111
100
AcDbEntity
  8
0
 62
     7
100
AcDbHatch
 10
0.0
 20
0.0
 30
0.0
210
0.0
220
0.0
230
1.0
  2
SOLID
 70
     1
 71
     1
 91
        2
 92
        3
 72
     0
 73
     1
 93
        4
 10
35.64021362299237
 20
43.856512683661691
 10
36.318469964823208
 20
43.536405872165517
 10
35.0
 20
42.500000000000021
 10
34.961957281161531
 20
44.17661949515788
 97
        2
330
106
330
110
 92
        3
 72
     0
 73
     1
 93
        4
 10
64.359786377007623
 20
43.856512683661691
 10
63.681530035176792
 20
43.536405872165517
 10
65.0
 20
42.500000000000021
 10
65.038042718838483
 20
44.17661949515788
 97
        1
330
112
 75
     0
 76
     1
 98
        0
  0
LWPOLYLINE
  5
112
102
{ACAD_REACTORS
330
111
102
}
100
AcDbEntity
  8
0
  6
CONTINUOUS
 62
     7
100
AcDbPolyline
 90
        4
 70
     1
 10
64.359786
 20
43.856513
 10
63.68153
 20
43.536406
 10
65.0
 20
42.5
 10
65.038043
 20
44.176619
  0
ENDBLK
  5
113
100
AcDbEntity
  8
0
100
AcDbBlockEnd
  0
BLOCK
  5
115
100
AcDbEntity
  8
0
100
AcDbBlockBegin
  2
SECHSKANT_SCHRAUBENKOPF
 70
     0
 10
0.0
 20
0.0
 30
0.0
  3
SECHSKANT_SCHRAUBENKOPF
  1

  0
LWPOLYLINE
  5
116
102
{ACAD_REACTORS
330
13F
102
}
100
AcDbEntity
  8
0
  6
CONTINUOUS
 62
     7
100
AcDbPolyline
 90
        2
 70
     1
 10
0.0
 20
7.5
 42
-1.0
 10
15.0
 20
7.5
 42
-1.0
  0
LWPOLYLINE
  5
117
102
{ACAD_REACTORS
330
13F
102
}
100
AcDbEntity
  8
0
  6
CONTINUOUS
 62
     7
100
AcDbPolyline
 90
        6
 70
     1
 10
10.386751
 20
12.5
 10
4.613249
 20
12.5
 10
1.726497
 20
7.5
 10
4.613249
 20
2.5
 10
10.386751
 20
2.5
 10
13.273503
 20
7.5
  0
ENDBLK
  5
118
100
AcDbEntity
  8
0
100
AcDbBlockEnd
  0
BLOCK
  5
11A
100
AcDbEntity
  8
0
100
AcDbBlockBegin
  2
GEWINDE1
 70
     0
 10
0.0
 20
0.0
 30
0.0
  3
GEWINDE1
  1

  0
LWPOLYLINE
  5
11B
100
AcDbEntity
  8
0
  6
CONTINUOUS
 62
     7
100
AcDbPolyline
 90
       10
 70
     0
 10
0.0
 20
8.0
 10
0.0
 20
0.0
 10
1.785714
 20
8.0
 10
3.571429
 20
0.0
 10
5.357143
 20
8.0
 10
7.142857
 20
0.0
 10
8.928571
 20
8.0
 10
10.714286
 20
0.0
 10
12.5
 20
8.0
 10
12.5
 20
0.0
  0
ENDBLK
  5
11C
100
AcDbEntity
  8
0
100
AcDbBlockEnd
  0
BLOCK
  5
11E
100
AcDbEntity
  8
0
100
AcDbBlockBegin
  2
FEDER
 70
     0
 10
0.0
 20
0.0
 30
0.0
  3
FEDER
  1

  0
LWPOLYLINE
  5
11F
100
AcDbEntity
  8
0
  6
CONTINUOUS
 62
     7
100
AcDbPolyline
 90
       10
 70
     0
 10
-140.742336
 20
-53.794325
 10
-124.614357
 20
-51.728805
 10
-134.467139
 20
-64.663285
 10
-118.33916
 20
-62.597765
 10
-128.191942
 20
-75.532246
 10
-112.063962
 20
-73.466726
 10
-121.916745
 20
-86.401206
 10
-105.788765
 20
-84.335686
 10
-115.641548
 20
-97.270166
 10
-99.513568
 20
-95.204646
  0
LINE
  5
120
100
AcDbEntity
  8
0
  6
CONTINUOUS
 62
     7
100
AcDbLine
 10
-102.87116
 20
-104.389126
 30
0.0
 11
-99.513568
 21
-95.204646
 31
0.0
  0
ELLIPSE
  5
121
102
{ACAD_REACTORS
330
13F
102
}
100
AcDbEntity
  8
0
  6
CONTINUOUS
 62
     7
100
AcDbEllipse
 10
-99.9781
 20
-109.400054
 30
0.0
 11
2.8930604409852885
 21
-5.0109276723637439
 31
0.0
210
0.0
220
0.0
230
1.0
 40
0.864137
 41
1.5707963267948963
 42
4.7123889803847039
  0
ELLIPSE
  5
122
102
{ACAD_REACTORS
330
13F
102
}
100
AcDbEntity
  8
0
  6
CONTINUOUS
 62
     7
100
AcDbEllipse
 10
-99.9781
 20
-109.400054
 30
0.0
 11
2.8930604409852885
 21
-5.0109276723637439
 31
0.0
210
0.0
220
0.0
230
1.0
 40
0.864137
 41
4.7123889803846897
 42
1.5707963267948963
  0
ELLIPSE
  5
123
102
{ACAD_REACTORS
330
13F
102
}
100
AcDbEntity
  8
0
  6
CONTINUOUS
 62
     7
100
AcDbEllipse
 10
-135.84884
 20
-46.27011
 30
0.0
 11
2.7900635097797308
 21
-4.8325317545201818
 31
0.0
210
0.0
220
0.0
230
1.0
 40
0.896037
 41
1.5707963267948963
 42
4.7123889803847039
  0
ELLIPSE
  5
124
102
{ACAD_REACTORS
330
13F
102
}
100
AcDbEntity
  8
0
  6
CONTINUOUS
 62
     7
100
AcDbEllipse
 10
-135.84884
 20
-46.27011
 30
0.0
 11
2.7900635097797313
 21
-4.8325317545201827
 31
0.0
210
0.0
220
0.0
230
1.0
 40
0.896037
 41
4.7123889803846897
 42
1.5707963267949108
  0
ENDBLK
  5
125
100
AcDbEntity
  8
0
100
AcDbBlockEnd
  0
BLOCK
  5
127
100
AcDbEntity
  8
0
100
AcDbBlockBegin
  2
KONZENTRISCHER_LAYER_1
 70
     0
 10
0.0
 20
0.0
 30
0.0
  3
KONZENTRISCHER_LAYER_1
  1

  0
LWPOLYLINE
  5
128
102
{ACAD_REACTORS
330
13F
102
}
100
AcDbEntity
  8
0
  6
CONTINUOUS
 62
     7
100
AcDbPolyline
 90
        2
 70
     1
 10
10.8
 20
50.8
 42
1.0
 10
90.8
 20
50.8
 42
1.0
  0
LWPOLYLINE
  5
129
102
{ACAD_REACTORS
330
13F
102
}
100
AcDbEntity
  8
0
  6
CONTINUOUS
 62
     7
100
AcDbPolyline
 90
        2
 70
     1
 10
20.8
 20
50.8
 42
-1.0
 10
80.8
 20
50.8
 42
-1.0
  0
ENDBLK
  5
12A
100
AcDbEntity
  8
0
100
AcDbBlockEnd
  0
BLOCK
  5
12C
100
AcDbEntity
  8
0
100
AcDbBlockBegin
  2
AKTENORDNER
 70
     0
 10
0.0
 20
0.0
 30
0.0
  3
AKTENORDNER
  1

  0
LWPOLYLINE
  5
12D
102
{ACAD_REACTORS
330
13F
102
}
100
AcDbEntity
  8
0
  6
CONTINUOUS
 62
     7
100
AcDbPolyline
 90
        3
 70
     1
 10
42.5
 20
57.5
 10
57.5
 20
57.5
 10
50.0
 20
42.5
  0
ENDBLK
  5
12E
100
AcDbEntity
  8
0
100
AcDbBlockEnd
  0
BLOCK
  5
130
100
AcDbEntity
  8
0
100
AcDbBlockBegin
  2
KONZENTRISCHER_LAYER_3
 70
     2
 10
0.0
 20
0.0
 30
0.0
  3
KONZENTRISCHER_LAYER_3
  1

  0
LWPOLYLINE
  5
131
102
{ACAD_REACTORS
330
13F
102
}
100
AcDbEntity
  8
0
  6
CONTINUOUS
 62
     7
100
AcDbPolyline
 90
        2
 70
     1
 10
5.4
 20
25.4
 42
1.0
 10
45.4
 20
25.4
 42
1.0
  0
LWPOLYLINE
  5
132
102
{ACAD_REACTORS
330
13F
102
}
100
AcDbEntity
  8
0
  6
CONTINUOUS
 62
     7
100
AcDbPolyline
 90
        2
 70
     1
 10
15.4
 20
25.4
 42
-1.0
 10
35.4
 20
25.4
 42
-1.0
  0
ENDBLK
  5
133
100
AcDbEntity
  8
0
100
AcDbBlockEnd
  0
BLOCK
  5
135
100
AcDbEntity
  8
0
100
AcDbBlockBegin
  2
KONZENTRISCHER_LAYER_2
 70
     0
 10
0.0
 20
0.0
 30
0.0
  3
KONZENTRISCHER_LAYER_2
  1

  0
LWPOLYLINE
  5
136
102
{ACAD_REACTORS
330
13F
102
}
100
AcDbEntity
  8
0
  6
CONTINUOUS
 62
     7
100
AcDbPolyline
 90
        2
 70
     1
 10
8.1
 20
38.1
 42
1.0
 10
68.1
 20
38.1
 42
1.0
  0
LWPOLYLINE
  5
137
102
{ACAD_REACTORS
330
13F
102
}
100
AcDbEntity
  8
0
  6
CONTINUOUS
 62
     7
100
AcDbPolyline
 90
        2
 70
     1
 10
18.1
 20
38.1
 42
-1.0
 10
58.1
 20
38.1
 42
-1.0
  0
ENDBLK
  5
138
100
AcDbEntity
  8
0
100
AcDbBlockEnd
  0
BLOCK
  5
13A
100
AcDbEntity
  8
0
100
AcDbBlockBegin
  2
CIRCLE_28
 70
     0
 10
0.0
 20
0.0
 30
0.0
  3
CIRCLE_28
  1

  0
LINE
  5
13B
102
{ACAD_REACTORS
330
13F
102
}
100
AcDbEntity
  8
0
  6
CONTINUOUS
 62
     7
100
AcDbLine
 10
17.393399
 20
11.393397
 30
0.0
 11
14.393398
 21
14.393398
 31
0.0
  0
LINE
  5
13C
102
{ACAD_REACTORS
330
13F
102
}
100
AcDbEntity
  8
0
  6
CONTINUOUS
 62
     7
100
AcDbLine
 10
14.393398
 20
14.393398
 30
0.0
 11
35.606602
 21
35.606602
 31
0.0
  0
LINE
  5
13D
102
{ACAD_REACTORS
330
13F
102
}
100
AcDbEntity
  8
0
  6
CONTINUOUS
 62
     7
100
AcDbLine
 10
35.606602
 20
35.606602
 30
0.0
 11
38.606603
 21
32.606601
 31
0.0
  0
ELLIPSE
  5
13E
102
{ACAD_REACTORS
330
13F
102
}
100
AcDbEntity
  8
0
  6
CONTINUOUS
 62
     7
100
AcDbEllipse
 10
27.717659
 20
22.282341
 30
0.0
 11
10.888943174760941
 21
-10.888943174760902
 31
0.0
210
0.0
220
0.0
230
1.0
 40
0.974398
 41
4.7383210749359765
 42
1.5448642322436092
  0
HATCH
  5
13F
100
AcDbEntity
  8
0
 62
   252
100
AcDbHatch
 10
0.0
 20
0.0
 30
0.0
210
0.0
220
0.0
230
1.0
  2
SOLID
 70
     1
 71
     1
 91
        1
 92
        1
 93
        4
 72
     1
 10
17.393399210548534
 20
11.393397353854754
 11
14.39339828220167
 21
14.393398282201606
 72
     1
 10
14.39339828220167
 20
14.393398282201606
 11
35.606601717798064
 21
35.606601717798078
 72
     1
 10
35.606601717798064
 20
35.606601717798078
 11
38.606602646144928
 21
32.606600789451221
 72
     3
 10
27.717659471384025
 20
22.282340528615691
 11
10.610169046785099
 21
10.610169046785137
 40
1.026274
 50
1.4858
 51
178.5142
 73
     0
 97
       17
330
116
330
117
330
121
330
122
330
123
330
124
330
128
330
129
330
12D
330
131
330
132
330
136
330
137
330
13B
330
13C
330
13D
330
13E
 75
     0
 76
     1
 98
        0
  0
LWPOLYLINE
  5
140
102
{ACAD_REACTORS
330
164
102
}
100
AcDbEntity
  8
0
  6
CONTINUOUS
 62
     7
100
AcDbPolyline
 90
        2
 70
     1
 10
10.0
 20
25.0
 42
-1.0
 10
40.0
 20
25.0
 42
-1.0
  0
ENDBLK
  5
141
100
AcDbEntity
  8
0
100
AcDbBlockEnd
  0
BLOCK
  5
143
100
AcDbEntity
  8
0
100
AcDbBlockBegin
  2
TEIL-LAYER_3
 70
     0
 10
0.0
 20
0.0
 30
0.0
  3
TEIL-LAYER_3
  1

  0
LWPOLYLINE
  5
144
102
{ACAD_REACTORS
330
164
102
}
100
AcDbEntity
  8
0
  6
CONTINUOUS
 62
     7
100
AcDbPolyline
 90
        4
 70
     1
 10
13.0
 20
2.0
 10
23.0
 20
2.0
 42
0.414214
 10
3.0
 20
22.0
 10
3.0
 20
12.0
 42
-0.414214
  0
ENDBLK
  5
145
100
AcDbEntity
  8
0
100
AcDbBlockEnd
  0
BLOCK
  5
147
100
AcDbEntity
  8
0
100
AcDbBlockBegin
  2
KRUMMER_PFEIL
 70
     0
 10
0.0
 20
0.0
 30
0.0
  3
KRUMMER_PFEIL
  1

  0
LWPOLYLINE
  5
148
102
{ACAD_REACTORS
330
164
102
}
100
AcDbEntity
  8
0
  6
CONTINUOUS
 62
     7
100
AcDbPolyline
 90
       11
 70
     1
 10
32.5
 20
45.0
 10
57.1
 20
45.0
 42
0.170304
 10
78.744511
 20
52.592484
 10
91.719131
 20
62.972181
 10
94.842606
 20
59.067837
 10
92.5
 20
70.0
 10
82.348706
 20
74.685213
 10
85.472181
 20
70.780869
 10
72.49756
 20
60.401173
 42
-0.170304
 10
57.1
 20
55.0
 10
32.5
 20
55.0
  0
ENDBLK
  5
149
100
AcDbEntity
  8
0
100
AcDbBlockEnd
  0
BLOCK
  5
14B
100
AcDbEntity
  8
0
100
AcDbBlockBegin
  2
2D-DOPPEL
 70
     0
 10
0.0
 20
0.0
 30
0.0
  3
2D-DOPPEL
  1

  0
LWPOLYLINE
  5
14C
102
{ACAD_REACTORS
330
164
102
}
100
AcDbEntity
  8
0
  6
CONTINUOUS
 62
     7
100
AcDbPolyline
 90
       10
 70
     1
 10
40.0
 20
55.0
 10
40.0
 20
60.0
 10
35.0
 20
50.0
 10
40.0
 20
40.0
 10
40.0
 20
45.0
 10
60.0
 20
45.0
 10
60.0
 20
40.0
 10
65.0
 20
50.0
 10
60.0
 20
60.0
 10
60.0
 20
55.0
  0
ENDBLK
  5
14D
100
AcDbEntity
  8
0
100
AcDbBlockEnd
  0
BLOCK
  5
14F
100
AcDbEntity
  8
0
100
AcDbBlockBegin
  2
TEIL-LAYER_4
 70
     0
 10
0.0
 20
0.0
 30
0.0
  3
TEIL-LAYER_4
  1

  0
LWPOLYLINE
  5
150
102
{ACAD_REACTORS
330
164
102
}
100
AcDbEntity
  8
0
  6
CONTINUOUS
 62
     7
100
AcDbPolyline
 90
        3
 70
     1
 10
1.35
 20
9.335743
 10
11.35
 20
9.335743
 42
0.414214
 10
1.35
 20
19.335743
  0
ENDBLK
  5
151
100
AcDbEntity
  8
0
100
AcDbBlockEnd
  0
BLOCK
  5
153
100
AcDbEntity
  8
0
100
AcDbBlockBegin
  2
1D-PFEIL
 70
     0
 10
0.0
 20
0.0
 30
0.0
  3
1D-PFEIL
  1

  0
LINE
  5
154
102
{ACAD_REACTORS
330
164
102
}
100
AcDbEntity
  8
0
  6
CONTINUOUS
 62
     7
100
AcDbLine
 10
35.065333
 20
45.0
 30
0.0
 11
60.065333
 21
45.0
 31
0.0
  0
LINE
  5
155
102
{ACAD_REACTORS
330
164
102
}
100
AcDbEntity
  8
0
  6
CONTINUOUS
 62
     7
100
AcDbLine
 10
60.065333
 20
45.0
 30
0.0
 11
60.065333
 21
40.0
 31
0.0
  0
LINE
  5
156
102
{ACAD_REACTORS
330
164
102
}
100
AcDbEntity
  8
0
  6
CONTINUOUS
 62
     7
100
AcDbLine
 10
60.065333
 20
40.0
 30
0.0
 11
65.065333
 21
50.0
 31
0.0
  0
LINE
  5
157
102
{ACAD_REACTORS
330
164
102
}
100
AcDbEntity
  8
0
  6
CONTINUOUS
 62
     7
100
AcDbLine
 10
65.065333
 20
50.0
 30
0.0
 11
60.065333
 21
60.0
 31
0.0
  0
LINE
  5
158
102
{ACAD_REACTORS
330
164
102
}
100
AcDbEntity
  8
0
  6
CONTINUOUS
 62
     7
100
AcDbLine
 10
60.065333
 20
60.0
 30
0.0
 11
60.065333
 21
55.0
 31
0.0
  0
LINE
  5
159
102
{ACAD_REACTORS
330
164
102
}
100
AcDbEntity
  8
0
  6
CONTINUOUS
 62
     7
100
AcDbLine
 10
60.065333
 20
55.0
 30
0.0
 11
35.065333
 21
55.0
 31
0.0
  0
LWPOLYLINE
  5
15A
100
AcDbEntity
  8
0
  6
CONTINUOUS
 62
     7
100
AcDbPolyline
 90
        7
 70
     1
 10
35.065333
 20
45.0
 10
60.065333
 20
45.0
 10
60.065333
 20
40.0
 10
65.065333
 20
50.0
 10
60.065333
 20
60.0
 10
60.065333
 20
55.0
 10
35.065333
 20
55.0
  0
ENDBLK
  5
15B
100
AcDbEntity
  8
0
100
AcDbBlockEnd
  0
BLOCK
  5
15D
100
AcDbEntity
  8
0
100
AcDbBlockBegin
  2
RAUTE
 70
     0
 10
0.0
 20
0.0
 30
0.0
  3
RAUTE
  1

  0
LWPOLYLINE
  5
15E
102
{ACAD_REACTORS
330
164
102
}
100
AcDbEntity
  8
0
  6
CONTINUOUS
 62
     7
100
AcDbPolyline
 90
        4
 70
     1
 10
35.0
 20
50.0
 10
50.0
 20
65.0
 10
65.0
 20
50.0
 10
50.0
 20
35.0
  0
ENDBLK
  5
15F
100
AcDbEntity
  8
0
100
AcDbBlockEnd
  0
BLOCK
  5
161
100
AcDbEntity
  8
0
100
AcDbBlockBegin
  2
ORGANISATION
 70
     0
 10
0.0
 20
0.0
 30
0.0
  3
ORGANISATION
  1

  0
MTEXT
  5
162
100
AcDbEntity
  8
0
100
AcDbMText
 10
25.598437
 20
19.685157
 30
0.0
 40
1.540968
 41
12.5
 71
     5
 72
     5
  1
\C7;\fArial|b0|i0|;\H1.5409676972777;Organisatio\Pn
  0
LWPOLYLINE
  5
163
102
{ACAD_REACTORS
330
164
102
}
100
AcDbEntity
  8
0
  6
CONTINUOUS
 62
     7
100
AcDbPolyline
 90
        4
 70
     1
 10
23.298437
 20
22.578531
 10
24.498438
 20
22.578531
 10
24.498438
 20
23.755002
 10
23.298437
 20
23.755002
  0
HATCH
  5
164
100
AcDbEntity
  8
0
 62
   253
100
AcDbHatch
 10
0.0
 20
0.0
 30
0.0
210
0.0
220
0.0
230
1.0
  2
SOLID
 70
     1
 71
     1
 91
        4
 92
        3
 72
     0
 73
     1
 93
        4
 10
23.298437499999999
 20
22.578531249999997
 10
24.498437500000001
 20
22.578531249999997
 10
24.498437500000001
 20
23.755001838235291
 10
23.298437499999999
 20
23.755001838235291
 97
       13
330
140
330
144
330
148
330
14C
330
150
330
154
330
155
330
156
330
157
330
158
330
159
330
15E
330
163
 92
        3
 72
     0
 73
     1
 93
        4
 10
25.098437499999999
 20
22.578531249999997
 10
26.298437499999999
 20
22.578531249999997
 10
26.298437499999999
 20
23.755001838235291
 10
25.098437499999999
 20
23.755001838235291
 97
        1
330
165
 92
        3
 72
     0
 73
     1
 93
        4
 10
26.898437499999996
 20
22.578531249999997
 10
28.098437499999999
 20
22.578531249999997
 10
28.098437499999999
 20
23.755001838235291
 10
26.898437499999996
 20
23.755001838235291
 97
        1
330
166
 92
        3
 72
     0
 73
     1
 93
        4
 10
24.498437500000001
 20
24.931472426470584
 10
26.898437500000004
 20
24.931472426470584
 10
26.898437500000004
 20
27.284413602941171
 10
24.498437500000001
 20
27.284413602941171
 97
        1
330
167
 75
     0
 76
     1
 98
        0
  0
LWPOLYLINE
  5
165
102
{ACAD_REACTORS
330
164
102
}
100
AcDbEntity
  8
0
  6
CONTINUOUS
 62
     7
100
AcDbPolyline
 90
        4
 70
     1
 10
25.098437
 20
22.578531
 10
26.298437
 20
22.578531
 10
26.298437
 20
23.755002
 10
25.098437
 20
23.755002
  0
LWPOLYLINE
  5
166
102
{ACAD_REACTORS
330
164
102
}
100
AcDbEntity
  8
0
  6
CONTINUOUS
 62
     7
100
AcDbPolyline
 90
        4
 70
     1
 10
26.898437
 20
22.578531
 10
28.098437
 20
22.578531
 10
28.098437
 20
23.755002
 10
26.898437
 20
23.755002
  0
LWPOLYLINE
  5
167
102
{ACAD_REACTORS
330
164
102
}
100
AcDbEntity
  8
0
  6
CONTINUOUS
 62
     7
100
AcDbPolyline
 90
        4
 70
     1
 10
24.498438
 20
24.931472
 10
26.898438
 20
24.931472
 10
26.898438
 20
27.284414
 10
24.498438
 20
27.284414
  0
LWPOLYLINE
  5
168
102
{ACAD_REACTORS
330
169
102
}
100
AcDbEntity
  8
0
  6
CONTINUOUS
 62
     7
100
AcDbPolyline
 90
        4
 70
     1
 10
24.298437
 20
25.22559
 10
26.698437
 20
25.22559
 10
26.698437
 20
27.578531
 10
24.298437
 20
27.578531
  0
HATCH
  5
169
100
AcDbEntity
  8
0
 62
     3
100
AcDbHatch
 10
0.0
 20
0.0
 30
0.0
210
0.0
220
0.0
230
1.0
  2
SOLID
 70
     1
 71
     1
 91
        1
 92
        3
 72
     0
 73
     1
 93
        4
 10
24.298437499999999
 20
25.225590073529407
 10
26.698437499999997
 20
25.225590073529407
 10
26.698437499999997
 20
27.578531249999994
 10
24.298437499999999
 20
27.578531249999994
 97
        1
330
168
 75
     0
 76
     1
 98
        0
  0
LWPOLYLINE
  5
16A
102
{ACAD_REACTORS
330
16B
102
}
100
AcDbEntity
  8
0
  6
CONTINUOUS
 62
     7
100
AcDbPolyline
 90
        4
 70
     1
 10
23.098437
 20
22.872649
 10
24.298437
 20
22.872649
 10
24.298437
 20
24.049119
 10
23.098437
 20
24.049119
  0
HATCH
  5
16B
100
AcDbEntity
  8
0
 62
     4
100
AcDbHatch
 10
0.0
 20
0.0
 30
0.0
210
0.0
220
0.0
230
1.0
  2
SOLID
 70
     1
 71
     1
 91
        3
 92
        3
 72
     0
 73
     1
 93
        4
 10
23.098437499999996
 20
22.87264889705882
 10
24.298437499999999
 20
22.87264889705882
 10
24.298437499999999
 20
24.049119485294113
 10
23.098437499999996
 20
24.049119485294113
 97
        1
330
16A
 92
        3
 72
     0
 73
     1
 93
        4
 10
24.898437500000004
 20
22.87264889705882
 10
26.098437500000003
 20
22.87264889705882
 10
26.098437500000003
 20
24.049119485294113
 10
24.898437500000004
 20
24.049119485294113
 97
        1
330
16C
 92
        3
 72
     0
 73
     1
 93
        4
 10
26.698437500000001
 20
22.87264889705882
 10
27.8984375
 20
22.87264889705882
 10
27.8984375
 20
24.049119485294113
 10
26.698437500000001
 20
24.049119485294113
 97
        1
330
16D
 75
     0
 76
     1
 98
        0
  0
LWPOLYLINE
  5
16C
102
{ACAD_REACTORS
330
16B
102
}
100
AcDbEntity
  8
0
  6
CONTINUOUS
 62
     7
100
AcDbPolyline
 90
        4
 70
     1
 10
24.898438
 20
22.872649
 10
26.098438
 20
22.872649
 10
26.098438
 20
24.049119
 10
24.898438
 20
24.049119
  0
LWPOLYLINE
  5
16D
102
{ACAD_REACTORS
330
16B
102
}
100
AcDbEntity
  8
0
  6
CONTINUOUS
 62
     7
100
AcDbPolyline
 90
        4
 70
     1
 10
26.698438
 20
22.872649
 10
27.898438
 20
22.872649
 10
27.898438
 20
24.049119
 10
26.698438
 20
24.049119
  0
LWPOLYLINE
  5
16E
100
AcDbEntity
  8
0
  6
CONTINUOUS
 62
     7
100
AcDbPolyline
 90
        4
 70
     0
 10
23.698437
 20
24.049119
 10
23.698437
 20
24.637355
 10
25.498437
 20
24.637355
 10
25.498437
 20
25.22559
  0
LWPOLYLINE
  5
16F
100
AcDbEntity
  8
0
  6
CONTINUOUS
 62
     7
100
AcDbPolyline
 90
        4
 70
     0
 10
25.498437
 20
24.049119
 10
25.498437
 20
24.637355
 10
27.298437
 20
24.637355
 10
27.288437
 20
24.049119
  0
ENDBLK
  5
170
100
AcDbEntity
  8
0
100
AcDbBlockEnd
  0
BLOCK
  5
172
100
AcDbEntity
  8
0
100
AcDbBlockBegin
  2
AFP-SERVER
 70
     0
 10
0.0
 20
0.0
 30
0.0
  3
AFP-SERVER
  1

  0
MTEXT
  5
173
100
AcDbEntity
  8
0
100
AcDbMText
 10
25.4
 20
21.276607
 30
0.0
 40
1.540968
 41
12.5
 71
     5
 72
     5
  1
\C7;\fArial|b0|i0|;\H1.5409676972777;AFP-Server
  0
LWPOLYLINE
  5
174
102
{ACAD_REACTORS
330
175
102
}
100
AcDbEntity
  8
0
  6
CONTINUOUS
 62
     7
100
AcDbPolyline
 90
        4
 70
     1
 10
23.25617
 20
23.05625
 10
26.888511
 20
23.05625
 10
26.888511
 20
23.128714
 10
23.25617
 20
23.128714
  0
HATCH
  5
175
100
AcDbEntity
  8
0
 62
   251
100
AcDbHatch
 10
0.0
 20
0.0
 30
0.0
210
0.0
220
0.0
230
1.0
  2
SOLID
 70
     1
 71
     1
 91
        1
 92
        3
 72
     0
 73
     1
 93
        4
 10
23.256170212765955
 20
23.056250000000002
 10
26.88851063829787
 20
23.056250000000002
 10
26.88851063829787
 20
23.12871376811594
 10
23.256170212765955
 20
23.12871376811594
 97
        1
330
174
 75
     0
 76
     1
 98
        0
  0
LWPOLYLINE
  5
176
102
{ACAD_REACTORS
330
177
102
}
100
AcDbEntity
  8
0
  6
CONTINUOUS
 62
     7
100
AcDbPolyline
 90
        4
 70
     1
 10
23.2
 20
22.9
 10
26.944681
 20
22.9
 10
26.944681
 20
23.044928
 10
23.2
 20
23.044928
  0
HATCH
  5
177
100
AcDbEntity
  8
0
 62
     7
100
AcDbHatch
 10
0.0
 20
0.0
 30
0.0
210
0.0
220
0.0
230
1.0
  2
SOLID
 70
     1
 71
     1
 91
        2
 92
        3
 72
     0
 73
     1
 93
        4
 10
23.199999999999996
 20
22.899999999999999
 10
26.944680851063826
 20
22.899999999999999
 10
26.944680851063826
 20
23.044927536231882
 10
23.199999999999996
 20
23.044927536231882
 97
        1
330
176
 92
        3
 72
     0
 73
     1
 93
        4
 10
23.387234042553189
 20
23.117391304347823
 10
26.832340425531914
 20
23.117391304347823
 10
26.832340425531914
 20
27.899999999999999
 10
23.387234042553189
 20
27.899999999999999
 97
        1
330
178
 75
     0
 76
     1
 98
        0
  0
LWPOLYLINE
  5
178
102
{ACAD_REACTORS
330
177
102
}
100
AcDbEntity
  8
0
  6
CONTINUOUS
 62
     7
100
AcDbPolyline
 90
        4
 70
     1
 10
23.387234
 20
23.117391
 10
26.83234
 20
23.117391
 10
26.83234
 20
27.9
 10
23.387234
 20
27.9
  0
LWPOLYLINE
  5
179
102
{ACAD_REACTORS
330
17A
102
}
100
AcDbEntity
  8
0
  6
CONTINUOUS
 62
     7
100
AcDbPolyline
 90
        4
 70
     1
 10
23.705532
 20
23.280435
 10
26.514043
 20
23.280435
 10
26.514043
 20
27.592029
 10
23.705532
 20
27.592029
  0
HATCH
  5
17A
100
AcDbEntity
  8
0
 62
   253
100
AcDbHatch
 10
0.0
 20
0.0
 30
0.0
210
0.0
220
0.0
230
1.0
  2
SOLID
 70
     1
 71
     1
 91
        1
 92
        3
 72
     0
 73
     1
 93
        4
 10
23.705531914893612
 20
23.280434782608694
 10
26.514042553191487
 20
23.280434782608694
 10
26.514042553191487
 20
27.592028985507248
 10
23.705531914893612
 20
27.592028985507248
 97
        1
330
179
 75
     0
 76
     1
 98
        0
  0
LWPOLYLINE
  5
17B
102
{ACAD_REACTORS
330
17C
102
}
100
AcDbEntity
  8
0
  6
CONTINUOUS
 62
     7
100
AcDbPolyline
 90
        6
 70
     1
 10
26.514043
 20
27.592029
 10
26.701277
 20
27.746014
 10
26.701277
 20
23.126449
 10
23.518298
 20
23.126449
 10
23.705532
 20
23.280435
 10
26.514043
 20
23.280435
  0
HATCH
  5
17C
100
AcDbEntity
  8
0
 62
   251
100
AcDbHatch
 10
0.0
 20
0.0
 30
0.0
210
0.0
220
0.0
230
1.0
  2
SOLID
 70
     1
 71
     1
 91
        1
 92
        3
 72
     0
 73
     1
 93
        6
 10
26.514042553191487
 20
27.592028985507248
 10
26.701276595744677
 20
27.74601449275362
 10
26.701276595744677
 20
23.126449275362319
 10
23.518297872340419
 20
23.126449275362319
 10
23.705531914893612
 20
23.280434782608694
 10
26.514042553191487
 20
23.280434782608694
 97
        1
330
17B
 75
     0
 76
     1
 98
        0
  0
LWPOLYLINE
  5
17D
102
{ACAD_REACTORS
330
189
102
}
100
AcDbEntity
  8
0
  6
CONTINUOUS
 62
     7
100
AcDbPolyline
 90
        6
 70
     1
 10
26.701277
 20
27.746014
 10
23.518298
 20
27.746014
 10
23.518298
 20
23.126449
 10
23.705532
 20
23.280435
 10
23.705532
 20
27.592029
 10
26.514043
 20
27.592029
  0
LINE
  5
17E
100
AcDbEntity
  8
0
  6
CONTINUOUS
 62
   251
100
AcDbLine
 10
23.70314
 20
26.455254
 30
0.0
 11
26.51166
 21
26.455254
 31
0.0
  0
LINE
  5
17F
100
AcDbEntity
  8
0
  6
CONTINUOUS
 62
   251
100
AcDbLine
 10
23.70314
 20
25.368297
 30
0.0
 11
26.51166
 21
25.368297
 31
0.0
  0
LINE
  5
180
100
AcDbEntity
  8
0
  6
CONTINUOUS
 62
   251
100
AcDbLine
 10
23.70314
 20
25.005978
 30
0.0
 11
26.51166
 21
25.005978
 31
0.0
  0
LINE
  5
181
100
AcDbEntity
  8
0
  6
CONTINUOUS
 62
   251
100
AcDbLine
 10
23.70314
 20
24.643659
 30
0.0
 11
26.51166
 21
24.643659
 31
0.0
  0
LINE
  5
182
100
AcDbEntity
  8
0
  6
CONTINUOUS
 62
   251
100
AcDbLine
 10
23.70314
 20
24.281341
 30
0.0
 11
26.51166
 21
24.281341
 31
0.0
  0
LINE
  5
183
100
AcDbEntity
  8
0
  6
CONTINUOUS
 62
     7
100
AcDbLine
 10
23.703191
 20
24.345312
 30
0.0
 11
26.511711
 21
24.345312
 31
0.0
  0
LINE
  5
184
100
AcDbEntity
  8
0
  6
CONTINUOUS
 62
     7
100
AcDbLine
 10
23.703191
 20
24.707631
 30
0.0
 11
26.511711
 21
24.707631
 31
0.0
  0
LINE
  5
185
100
AcDbEntity
  8
0
  6
CONTINUOUS
 62
     7
100
AcDbLine
 10
23.703191
 20
25.06995
 30
0.0
 11
26.511711
 21
25.06995
 31
0.0
  0
LINE
  5
186
100
AcDbEntity
  8
0
  6
CONTINUOUS
 62
     7
100
AcDbLine
 10
23.703191
 20
25.432269
 30
0.0
 11
26.511711
 21
25.432269
 31
0.0
  0
LINE
  5
187
100
AcDbEntity
  8
0
  6
CONTINUOUS
 62
     7
100
AcDbLine
 10
23.703191
 20
26.519226
 30
0.0
 11
26.511711
 21
26.519226
 31
0.0
  0
LWPOLYLINE
  5
188
102
{ACAD_REACTORS
330
189
102
}
100
AcDbEntity
  8
0
  6
CONTINUOUS
 62
     7
100
AcDbPolyline
 90
        4
 70
     1
 10
24.978723
 20
24.095652
 10
27.225532
 20
24.095652
 10
27.225532
 20
25.544928
 10
24.978723
 20
25.544928
  0
HATCH
  5
189
100
AcDbEntity
  8
0
 62
   251
100
AcDbHatch
 10
0.0
 20
0.0
 30
0.0
210
0.0
220
0.0
230
1.0
  2
SOLID
 70
     1
 71
     1
 91
        1
 92
        3
 72
     0
 73
     1
 93
        4
 10
24.978723404255316
 20
24.095652173913042
 10
27.225531914893615
 20
24.095652173913042
 10
27.225531914893615
 20
25.544927536231878
 10
24.978723404255316
 20
25.544927536231878
 97
        2
330
17D
330
188
 75
     0
 76
     1
 98
        0
  0
LWPOLYLINE
  5
18A
102
{ACAD_REACTORS
330
18B
102
}
100
AcDbEntity
  8
0
  6
CONTINUOUS
 62
     7
100
AcDbPolyline
 90
        4
 70
     1
 10
25.502979
 20
24.358333
 10
27.6
 20
24.358333
 10
27.6
 20
25.807609
 10
25.502979
 20
25.807609
  0
HATCH
  5
18B
100
AcDbEntity
  8
0
 62
    10
100
AcDbHatch
 10
0.0
 20
0.0
 30
0.0
210
0.0
220
0.0
230
1.0
  2
SOLID
 70
     1
 71
     1
 91
        1
 92
        3
 72
     0
 73
     1
 93
        4
 10
25.502978723404251
 20
24.358333333333331
 10
27.599999999999994
 20
24.358333333333331
 10
27.599999999999994
 20
25.807608695652167
 10
25.502978723404251
 20
25.807608695652167
 97
        1
330
18A
 75
     0
 76
     1
 98
        0
  0
LWPOLYLINE
  5
18C
102
{ACAD_REACTORS
330
192
102
}
100
AcDbEntity
  8
0
  6
CONTINUOUS
 62
     7
100
AcDbPolyline
 90
       15
 70
     1
 10
26.097326
 20
24.781256
 10
26.005498
 20
24.781256
 10
25.916024
 20
24.781256
 10
25.904252
 20
24.701499
 10
25.890124
 20
24.621742
 10
25.72766
 20
24.621742
 10
25.824197
 20
25.10484
 10
25.920734
 20
25.590217
 10
26.007852
 20
25.590217
 10
26.094971
 20
25.590217
 10
26.193863
 20
25.10484
 10
26.2904
 20
24.621742
 10
26.205635
 20
24.621742
 10
26.123226
 20
24.621742
 10
26.109098
 20
24.701499
  0
LWPOLYLINE
  5
18D
102
{ACAD_REACTORS
330
192
102
}
100
AcDbEntity
  8
0
  6
CONTINUOUS
 62
     7
100
AcDbPolyline
 90
        6
 70
     1
 10
26.064362
 20
24.990902
 10
26.036107
 20
25.164088
 10
26.005498
 20
25.339553
 10
25.977243
 20
25.164088
 10
25.948988
 20
24.990902
 10
26.007852
 20
24.990902
  0
LWPOLYLINE
  5
18E
102
{ACAD_REACTORS
330
192
102
}
100
AcDbEntity
  8
0
  6
CONTINUOUS
 62
     7
100
AcDbPolyline
 90
       18
 70
     1
 10
26.339845
 20
25.590217
 10
26.735412
 20
25.590217
 10
26.735412
 20
25.485394
 10
26.735412
 20
25.38285
 10
26.617684
 20
25.38285
 10
26.499955
 20
25.38285
 10
26.499955
 20
25.298535
 10
26.499955
 20
25.214221
 10
26.601202
 20
25.214221
 10
26.700093
 20
25.214221
 10
26.700093
 20
25.116234
 10
26.700093
 20
25.018247
 10
26.601202
 20
25.018247
 10
26.499955
 20
25.018247
 10
26.499955
 20
24.621742
 10
26.4199
 20
24.621742
 10
26.339845
 20
24.621742
 10
26.339845
 20
25.10484
  0
LWPOLYLINE
  5
18F
102
{ACAD_REACTORS
330
192
102
}
100
AcDbEntity
  8
0
  6
CONTINUOUS
 62
     7
100
AcDbPolyline
 90
       34
 70
     1
 10
26.820176
 20
25.590217
 10
26.952031
 20
25.590217
 10
27.083887
 20
25.590217
 10
27.105078
 20
25.587939
 10
27.126269
 20
25.58566
 10
27.145105
 20
25.578824
 10
27.161587
 20
25.571987
 10
27.178069
 20
25.560593
 10
27.192196
 20
25.546921
 10
27.203969
 20
25.530969
 10
27.215742
 20
25.512739
 10
27.234578
 20
25.469443
 10
27.248706
 20
25.41931
 10
27.255769
 20
25.360062
 10
27.258124
 20
25.293978
 10
27.255769
 20
25.223336
 10
27.246351
 20
25.16181
 10
27.232224
 20
25.109398
 10
27.211033
 20
25.063823
 10
27.19926
 20
25.045593
 10
27.185133
 20
25.027362
 10
27.168651
 20
25.01369
 10
27.152169
 20
25.002296
 10
27.133332
 20
24.993181
 10
27.112141
 20
24.986345
 10
27.09095
 20
24.984066
 10
27.067405
 20
24.981787
 10
27.025023
 20
24.981787
 10
26.980286
 20
24.981787
 10
26.980286
 20
24.801765
 10
26.980286
 20
24.621742
 10
26.900231
 20
24.621742
 10
26.820176
 20
24.621742
 10
26.820176
 20
25.10484
  0
LWPOLYLINE
  5
190
102
{ACAD_REACTORS
330
192
102
}
100
AcDbEntity
  8
0
  6
CONTINUOUS
 62
     7
100
AcDbPolyline
 90
       20
 70
     1
 10
26.980286
 20
25.177761
 10
26.999122
 20
25.177761
 10
27.020313
 20
25.177761
 10
27.041504
 20
25.18004
 10
27.060341
 20
25.184597
 10
27.074468
 20
25.193712
 10
27.083887
 20
25.207385
 10
27.098014
 20
25.241566
 10
27.100368
 20
25.262075
 10
27.102723
 20
25.284863
 10
27.098014
 20
25.325881
 10
27.093305
 20
25.344111
 10
27.086241
 20
25.362341
 10
27.076823
 20
25.376013
 10
27.062695
 20
25.385129
 10
27.046214
 20
25.391965
 10
27.025023
 20
25.394244
 10
27.003831
 20
25.394244
 10
26.980286
 20
25.394244
 10
26.980286
 20
25.284863
  0
LWPOLYLINE
  5
191
102
{ACAD_REACTORS
330
192
102
}
100
AcDbEntity
  8
0
  6
CONTINUOUS
 62
     7
100
AcDbPolyline
 90
        4
 70
     1
 10
23.892766
 20
26.894565
 10
24.454468
 20
26.894565
 10
24.454468
 20
27.438043
 10
23.892766
 20
27.438043
  0
HATCH
  5
192
100
AcDbEntity
  8
0
 62
    14
100
AcDbHatch
 10
0.0
 20
0.0
 30
0.0
210
0.0
220
0.0
230
1.0
  2
SOLID
 70
     1
 71
     1
 91
        1
 92
        3
 72
     0
 73
     1
 93
        4
 10
23.892765957446802
 20
26.894565217391282
 10
24.454468085106399
 20
26.894565217391282
 10
24.454468085106399
 20
27.43804347826087
 10
23.892765957446802
 20
27.43804347826087
 97
        6
330
18C
330
18D
330
18E
330
18F
330
190
330
191
 75
     0
 76
     1
 98
        0
  0
LWPOLYLINE
  5
193
102
{ACAD_REACTORS
330
194
102
}
100
AcDbEntity
  8
0
  6
CONTINUOUS
 62
     7
100
AcDbPolyline
 90
        4
 70
     1
 10
23.892766
 20
27.166304
 10
24.173617
 20
27.166304
 10
24.173617
 20
27.438043
 10
23.892766
 20
27.438043
  0
HATCH
  5
194
100
AcDbEntity
  8
0
 62
    10
100
AcDbHatch
 10
0.0
 20
0.0
 30
0.0
210
0.0
220
0.0
230
1.0
  2
SOLID
 70
     1
 71
     1
 91
        1
 92
        3
 72
     0
 73
     1
 93
        4
 10
23.892765957446802
 20
27.166304347826074
 10
24.173617021276602
 20
27.166304347826074
 10
24.173617021276602
 20
27.43804347826087
 10
23.892765957446802
 20
27.43804347826087
 97
        1
330
193
 75
     0
 76
     1
 98
        0
  0
LWPOLYLINE
  5
195
102
{ACAD_REACTORS
330
196
102
}
100
AcDbEntity
  8
0
  6
CONTINUOUS
 62
     7
100
AcDbPolyline
 90
        4
 70
     1
 10
24.922553
 20
26.894565
 10
25.484255
 20
26.894565
 10
25.484255
 20
27.438043
 10
24.922553
 20
27.438043
  0
HATCH
  5
196
100
AcDbEntity
  8
0
 62
    94
100
AcDbHatch
 10
0.0
 20
0.0
 30
0.0
210
0.0
220
0.0
230
1.0
  2
SOLID
 70
     1
 71
     1
 91
        1
 92
        3
 72
     0
 73
     1
 93
        4
 10
24.922553191489371
 20
26.894565217391282
 10
25.484255319148971
 20
26.894565217391282
 10
25.484255319148971
 20
27.43804347826087
 10
24.922553191489371
 20
27.43804347826087
 97
        1
330
195
 75
     0
 76
     1
 98
        0
  0
LWPOLYLINE
  5
197
102
{ACAD_REACTORS
330
198
102
}
100
AcDbEntity
  8
0
  6
CONTINUOUS
 62
     7
100
AcDbPolyline
 90
        4
 70
     1
 10
24.922553
 20
27.166304
 10
25.203404
 20
27.166304
 10
25.203404
 20
27.438043
 10
24.922553
 20
27.438043
  0
HATCH
  5
198
100
AcDbEntity
  8
0
 62
     3
100
AcDbHatch
 10
0.0
 20
0.0
 30
0.0
210
0.0
220
0.0
230
1.0
  2
SOLID
 70
     1
 71
     1
 91
        1
 92
        3
 72
     0
 73
     1
 93
        4
 10
24.922553191489371
 20
27.166304347826074
 10
25.203404255319171
 20
27.166304347826074
 10
25.203404255319171
 20
27.43804347826087
 10
24.922553191489371
 20
27.43804347826087
 97
        1
330
197
 75
     0
 76
     1
 98
        0
  0
ENDBLK
  5
199
100
AcDbEntity
  8
0
100
AcDbBlockEnd
  0
BLOCK
  5
19B
100
AcDbEntity
  8
0
100
AcDbBlockBegin
  2
COMPUTER
 70
     0
 10
0.0
 20
0.0
 30
0.0
  3
COMPUTER
  1

  0
MTEXT
  5
19C
100
AcDbEntity
  8
0
100
AcDbMText
 10
25.151953
 20
22.318403
 30
0.0
 40
1.540968
 41
10.852718
 71
     5
 72
     5
  1
\C7;\fArial|b0|i0|;\H1.5409676972777;Computer
  0
LWPOLYLINE
  5
19D
100
AcDbEntity
  8
0
  6
CONTINUOUS
 62
     7
100
AcDbPolyline
 90
        4
 70
     1
 10
22.964453
 20
25.816797
 10
27.339453
 20
25.816797
 10
27.339453
 20
28.941797
 10
22.964453
 20
28.941797
  0
LWPOLYLINE
  5
19E
100
AcDbEntity
  8
0
  6
CONTINUOUS
 62
     7
100
AcDbPolyline
 90
        4
 70
     1
 10
22.651953
 20
23.941797
 10
27.651953
 20
23.941797
 10
27.651953
 20
25.348047
 10
22.651953
 20
25.348047
  0
LWPOLYLINE
  5
19F
102
{ACAD_REACTORS
330
1A0
102
}
100
AcDbEntity
  8
0
  6
CONTINUOUS
 62
     7
100
AcDbPolyline
 90
        4
 70
     1
 10
22.808203
 20
24.098047
 10
27.495703
 20
24.098047
 10
27.495703
 20
25.191797
 10
22.808203
 20
25.191797
  0
HATCH
  5
1A0
100
AcDbEntity
  8
0
 62
   253
100
AcDbHatch
 10
0.0
 20
0.0
 30
0.0
210
0.0
220
0.0
230
1.0
  2
SOLID
 70
     1
 71
     1
 91
        1
 92
        3
 72
     0
 73
     1
 93
        4
 10
22.808203124999999
 20
24.098046874999998
 10
27.495703124999995
 20
24.098046874999998
 10
27.495703124999995
 20
25.191796874999998
 10
22.808203124999999
 20
25.191796874999998
 97
        1
330
19F
 75
     0
 76
     1
 98
        0
  0
LWPOLYLINE
  5
1A1
102
{ACAD_REACTORS
330
1A2
102
}
100
AcDbEntity
  8
0
  6
CONTINUOUS
 62
     7
100
AcDbPolyline
 90
        6
 70
     1
 10
22.651953
 20
23.941797
 10
22.808203
 20
24.098047
 10
27.495703
 20
24.098047
 10
27.495703
 20
25.191797
 10
27.651953
 20
25.348047
 10
27.651953
 20
23.941797
  0
HATCH
  5
1A2
100
AcDbEntity
  8
0
 62
   252
100
AcDbHatch
 10
0.0
 20
0.0
 30
0.0
210
0.0
220
0.0
230
1.0
  2
SOLID
 70
     1
 71
     1
 91
        1
 92
        3
 72
     0
 73
     1
 93
        6
 10
22.651953124999999
 20
23.941796874999998
 10
22.808203124999999
 20
24.098046874999998
 10
27.495703124999995
 20
24.098046874999998
 10
27.495703124999995
 20
25.191796874999998
 10
27.651953124999999
 20
25.348046874999998
 10
27.651953124999999
 20
23.941796874999998
 97
        1
330
1A1
 75
     0
 76
     1
 98
        0
  0
LWPOLYLINE
  5
1A3
102
{ACAD_REACTORS
330
1A5
102
}
100
AcDbEntity
  8
0
  6
CONTINUOUS
 62
     7
100
AcDbPolyline
 90
        6
 70
     1
 10
22.651953
 20
23.941797
 10
22.808203
 20
24.098047
 10
22.808203
 20
25.191797
 10
27.495703
 20
25.191797
 10
27.651953
 20
25.348047
 10
22.651953
 20
25.348047
  0
LWPOLYLINE
  5
1A4
102
{ACAD_REACTORS
330
1A5
102
}
100
AcDbEntity
  8
0
  6
CONTINUOUS
 62
     7
100
AcDbPolyline
 90
       12
 70
     1
 10
26.089453
 20
24.723047
 10
26.089453
 20
24.644922
 10
27.026953
 20
24.644922
 10
27.026953
 20
24.723047
 10
27.339453
 20
24.723047
 10
27.339453
 20
24.879297
 10
27.026953
 20
24.879297
 10
27.026953
 20
24.957422
 10
26.089453
 20
24.957422
 10
26.089453
 20
24.879297
 10
25.776953
 20
24.879297
 10
25.776953
 20
24.723047
  0
HATCH
  5
1A5
100
AcDbEntity
  8
0
 62
     7
100
AcDbHatch
 10
0.0
 20
0.0
 30
0.0
210
0.0
220
0.0
230
1.0
  2
SOLID
 70
     1
 71
     1
 91
        1
 92
        3
 72
     0
 73
     1
 93
       12
 10
26.089453124999995
 20
24.723046874999998
 10
26.089453124999995
 20
24.644921874999998
 10
27.026953124999995
 20
24.644921874999998
 10
27.026953124999995
 20
24.723046874999998
 10
27.339453124999999
 20
24.723046874999998
 10
27.339453124999999
 20
24.879296874999998
 10
27.026953124999995
 20
24.879296874999998
 10
27.026953124999995
 20
24.957421874999998
 10
26.089453124999995
 20
24.957421874999998
 10
26.089453124999995
 20
24.879296874999998
 10
25.776953124999999
 20
24.879296874999998
 10
25.776953124999999
 20
24.723046874999998
 97
        2
330
1A3
330
1A4
 75
     0
 76
     1
 98
        0
  0
LWPOLYLINE
  5
1A6
102
{ACAD_REACTORS
330
1A7
102
}
100
AcDbEntity
  8
0
  6
CONTINUOUS
 62
     7
100
AcDbPolyline
 90
        4
 70
     1
 10
22.964453
 20
25.816797
 10
27.339453
 20
25.816797
 10
27.339453
 20
28.941797
 10
22.964453
 20
28.941797
  0
HATCH
  5
1A7
100
AcDbEntity
  8
0
 62
   253
100
AcDbHatch
 10
0.0
 20
0.0
 30
0.0
210
0.0
220
0.0
230
1.0
  2
SOLID
 70
     1
 71
     1
 91
        2
 92
        3
 72
     0
 73
     1
 93
        4
 10
22.964453124999999
 20
25.816796874999994
 10
27.339453124999999
 20
25.816796874999994
 10
27.339453124999999
 20
28.941796874999994
 10
22.964453124999999
 20
28.941796874999994
 97
        1
330
1A6
 92
        3
 72
     0
 73
     1
 93
        4
 10
23.120703124999999
 20
25.973046874999998
 10
27.183203124999999
 20
25.973046874999998
 10
27.183203124999999
 20
28.785546874999994
 10
23.120703124999999
 20
28.785546874999994
 97
        1
330
1A8
 75
     0
 76
     1
 98
        0
  0
LWPOLYLINE
  5
1A8
102
{ACAD_REACTORS
330
1A7
102
}
100
AcDbEntity
  8
0
  6
CONTINUOUS
 62
     7
100
AcDbPolyline
 90
        4
 70
     1
 10
23.120703
 20
25.973047
 10
27.183203
 20
25.973047
 10
27.183203
 20
28.785547
 10
23.120703
 20
28.785547
  0
LWPOLYLINE
  5
1A9
102
{ACAD_REACTORS
330
1AB
102
}
100
AcDbEntity
  8
0
  6
CONTINUOUS
 62
     7
100
AcDbPolyline
 90
        6
 70
     1
 10
23.120703
 20
25.973047
 10
23.276953
 20
26.129297
 10
27.026953
 20
26.129297
 10
27.026953
 20
28.629297
 10
27.183203
 20
28.785547
 10
27.183203
 20
25.973047
  0
LWPOLYLINE
  5
1AA
102
{ACAD_REACTORS
330
1AB
102
}
100
AcDbEntity
  8
0
  6
CONTINUOUS
 62
     7
100
AcDbPolyline
 90
        6
 70
     1
 10
23.276953
 20
26.129297
 10
23.120703
 20
25.973047
 10
23.120703
 20
28.785547
 10
27.183203
 20
28.785547
 10
27.026953
 20
28.629297
 10
23.276953
 20
28.629297
  0
HATCH
  5
1AB
100
AcDbEntity
  8
0
 62
   252
100
AcDbHatch
 10
0.0
 20
0.0
 30
0.0
210
0.0
220
0.0
230
1.0
  2
SOLID
 70
     1
 71
     1
 91
        1
 92
        3
 72
     0
 73
     1
 93
        6
 10
23.276953124999995
 20
26.129296874999998
 10
23.120703124999999
 20
25.973046874999998
 10
23.120703124999999
 20
28.785546874999994
 10
27.183203124999999
 20
28.785546874999994
 10
27.026953125000002
 20
28.629296874999998
 10
23.276953124999995
 20
28.629296874999998
 97
        2
330
1A9
330
1AA
 75
     0
 76
     1
 98
        0
  0
LWPOLYLINE
  5
1AC
102
{ACAD_REACTORS
330
1AD
102
}
100
AcDbEntity
  8
0
  6
CONTINUOUS
 62
     7
100
AcDbPolyline
 90
        4
 70
     1
 10
23.276953
 20
26.129297
 10
27.026953
 20
26.129297
 10
27.026953
 20
28.629297
 10
23.276953
 20
28.629297
  0
HATCH
  5
1AD
100
AcDbEntity
  8
0
 62
     7
100
AcDbHatch
 10
0.0
 20
0.0
 30
0.0
210
0.0
220
0.0
230
1.0
  2

 70
     1
 71
     1
 91
        1
 92
        3
 72
     0
 73
     1
 93
        4
 10
23.276953124999995
 20
26.129296874999998
 10
27.026953124999995
 20
26.129296874999998
 10
27.026953124999995
 20
28.629296874999998
 10
23.276953124999995
 20
28.629296874999998
 97
        1
330
1AC
 75
     0
 76
     1
 98
        0
  0
LWPOLYLINE
  5
1AE
102
{ACAD_REACTORS
330
1AF
102
}
100
AcDbEntity
  8
0
  6
CONTINUOUS
 62
     7
100
AcDbPolyline
 90
        4
 70
     1
 10
24.214453
 20
25.489416
 10
26.089453
 20
25.489416
 10
26.089453
 20
25.816797
 10
24.214453
 20
25.816797
  0
HATCH
  5
1AF
100
AcDbEntity
  8
0
 62
     7
100
AcDbHatch
 10
0.0
 20
0.0
 30
0.0
210
0.0
220
0.0
230
1.0
  2
SOLID
 70
     1
 71
     1
 91
        1
 92
        3
 72
     0
 73
     1
 93
        4
 10
24.214453124999999
 20
25.489415922619042
 10
26.089453124999999
 20
25.489415922619042
 10
26.089453124999999
 20
25.816796875000001
 10
24.214453124999999
 20
25.816796875000001
 97
        1
330
1AE
 75
     0
 76
     1
 98
        0
  0
LWPOLYLINE
  5
1B0
102
{ACAD_REACTORS
330
1B1
102
}
100
AcDbEntity
  8
0
  6
CONTINUOUS
 62
     7
100
AcDbPolyline
 90
        4
 70
     1
 10
22.964453
 20
24.801172
 10
23.276953
 20
24.801172
 10
23.276953
 20
25.035547
 10
22.964453
 20
25.035547
  0
HATCH
  5
1B1
100
AcDbEntity
  8
0
 62
    94
100
AcDbHatch
 10
0.0
 20
0.0
 30
0.0
210
0.0
220
0.0
230
1.0
  2
SOLID
 70
     1
 71
     1
 91
        1
 92
        3
 72
     0
 73
     1
 93
        4
 10
22.964453124999999
 20
24.801171874999998
 10
23.276953124999995
 20
24.801171874999998
 10
23.276953124999995
 20
25.035546874999998
 10
22.964453124999999
 20
25.035546874999998
 97
        1
330
1B0
 75
     0
 76
     1
 98
        0
  0
LWPOLYLINE
  5
1B2
102
{ACAD_REACTORS
330
1B3
102
}
100
AcDbEntity
  8
0
  6
CONTINUOUS
 62
     7
100
AcDbPolyline
 90
        4
 70
     1
 10
22.964453
 20
24.918359
 10
23.120703
 20
24.918359
 10
23.120703
 20
25.035547
 10
22.964453
 20
25.035547
  0
HATCH
  5
1B3
100
AcDbEntity
  8
0
 62
     3
100
AcDbHatch
 10
0.0
 20
0.0
 30
0.0
210
0.0
220
0.0
230
1.0
  2
SOLID
 70
     1
 71
     1
 91
        1
 92
        3
 72
     0
 73
     1
 93
        4
 10
22.964453124999999
 20
24.918359374999994
 10
23.120703124999999
 20
24.918359374999994
 10
23.120703124999999
 20
25.035546874999998
 10
22.964453124999999
 20
25.035546874999998
 97
        1
330
1B2
 75
     0
 76
     1
 98
        0
  0
ENDBLK
  5
1B4
100
AcDbEntity
  8
0
100
AcDbBlockEnd
  0
BLOCK
  5
1B6
100
AcDbEntity
  8
0
100
AcDbBlockBegin
  2
WWW-SERVER
 70
     0
 10
0.0
 20
0.0
 30
0.0
  3
WWW-SERVER
  1

  0
ENDBLK
  5
1B7
100
AcDbEntity
  8
0
100
AcDbBlockEnd
  0
BLOCK
  5
1B9
100
AcDbEntity
  8
0
100
AcDbBlockBegin
  2
SMARTCARD__SICH__ID-KTE
 70
     0
 10
0.0
 20
0.0
 30
0.0
  3
SMARTCARD__SICH__ID-KTE
  1

  0
ENDBLK
  5
1BA
100
AcDbEntity
  8
0
100
AcDbBlockEnd
  0
BLOCK
  5
1BC
100
AcDbEntity
  8
0
100
AcDbBlockBegin
  2
ORGANISATIONS-_EINHEIT
 70
     0
 10
0.0
 20
0.0
 30
0.0
  3
ORGANISATIONS-_EINHEIT
  1

  0
MTEXT
  5
1BD
100
AcDbEntity
  8
0
100
AcDbMText
 10
24.507031
 20
20.28047
 30
0.0
 40
1.540968
 41
12.5
 71
     5
 72
     5
  1
\C7;\fArial|b0|i0|;\H1.5409676972777;Organisatio\Pnseinheit
  0
LWPOLYLINE
  5
1BE
102
{ACAD_REACTORS
330
1BF
102
}
100
AcDbEntity
  8
0
  6
CONTINUOUS
 62
     7
100
AcDbPolyline
 90
        4
 70
     1
 10
22.207031
 20
26.18855
 10
24.607031
 20
26.18855
 10
24.607031
 20
27.879726
 10
22.207031
 20
27.879726
  0
HATCH
  5
1BF
100
AcDbEntity
  8
0
 62
   253
100
AcDbHatch
 10
0.0
 20
0.0
 30
0.0
210
0.0
220
0.0
230
1.0
  2
SOLID
 70
     1
 71
     1
 91
        4
 92
        3
 72
     0
 73
     1
 93
        4
 10
22.207031249999993
 20
26.188549632352945
 10
24.607031249999999
 20
26.188549632352945
 10
24.607031249999999
 20
27.879726102941174
 10
22.207031249999993
 20
27.879726102941163
 97
        1
330
1BE
 92
        3
 72
     0
 73
     1
 93
        4
 10
25.407031249999996
 20
26.703255514705873
 10
27.007031249999994
 20
26.703255514705873
 10
27.007031249999994
 20
27.879726102941163
 10
25.407031249999996
 20
27.879726102941163
 97
        1
330
1C0
 92
        3
 72
     0
 73
     1
 93
        4
 10
25.407031249999996
 20
24.938549632352935
 10
27.007031249999994
 20
24.938549632352935
 10
27.007031249999994
 20
26.115020220588228
 10
25.407031249999996
 20
26.115020220588228
 97
        1
330
1C1
 92
        3
 72
     0
 73
     1
 93
        4
 10
25.407031249999996
 20
23.173843749999996
 10
27.007031249999994
 20
23.173843749999996
 10
27.007031249999994
 20
24.35031433823529
 10
25.407031249999996
 20
24.35031433823529
 97
        1
330
1C2
 75
     0
 76
     1
 98
        0
  0
LWPOLYLINE
  5
1C0
102
{ACAD_REACTORS
330
1BF
102
}
100
AcDbEntity
  8
0
  6
CONTINUOUS
 62
     7
100
AcDbPolyline
 90
        4
 70
     1
 10
25.407031
 20
26.703256
 10
27.007031
 20
26.703256
 10
27.007031
 20
27.879726
 10
25.407031
 20
27.879726
  0
LWPOLYLINE
  5
1C1
102
{ACAD_REACTORS
330
1BF
102
}
100
AcDbEntity
  8
0
  6
CONTINUOUS
 62
     7
100
AcDbPolyline
 90
        4
 70
     1
 10
25.407031
 20
24.93855
 10
27.007031
 20
24.93855
 10
27.007031
 20
26.11502
 10
25.407031
 20
26.11502
  0
LWPOLYLINE
  5
1C2
102
{ACAD_REACTORS
330
1BF
102
}
100
AcDbEntity
  8
0
  6
CONTINUOUS
 62
     7
100
AcDbPolyline
 90
        4
 70
     1
 10
25.407031
 20
23.173844
 10
27.007031
 20
23.173844
 10
27.007031
 20
24.350314
 10
25.407031
 20
24.350314
  0
LWPOLYLINE
  5
1C3
102
{ACAD_REACTORS
330
1C4
102
}
100
AcDbEntity
  8
0
  6
CONTINUOUS
 62
     7
100
AcDbPolyline
 90
        4
 70
     1
 10
22.007031
 20
26.482667
 10
24.407031
 20
26.482667
 10
24.407031
 20
28.173844
 10
22.007031
 20
28.173844
  0
HATCH
  5
1C4
100
AcDbEntity
  8
0
 62
     4
100
AcDbHatch
 10
0.0
 20
0.0
 30
0.0
210
0.0
220
0.0
230
1.0
  2
SOLID
 70
     1
 71
     1
 91
        1
 92
        3
 72
     0
 73
     1
 93
        4
 10
22.007031249999997
 20
26.482667279411764
 10
24.407031249999999
 20
26.482667279411764
 10
24.407031249999999
 20
28.173843749999993
 10
22.007031249999997
 20
28.173843749999993
 97
        1
330
1C3
 75
     0
 76
     1
 98
        0
  0
LWPOLYLINE
  5
1C5
102
{ACAD_REACTORS
330
1C6
102
}
100
AcDbEntity
  8
0
  6
CONTINUOUS
 62
     7
100
AcDbPolyline
 90
        4
 70
     1
 10
25.207031
 20
25.232667
 10
26.807031
 20
25.232667
 10
26.807031
 20
26.409138
 10
25.207031
 20
26.409138
  0
HATCH
  5
1C6
100
AcDbEntity
  8
0
 62
     2
100
AcDbHatch
 10
0.0
 20
0.0
 30
0.0
210
0.0
220
0.0
230
1.0
  2
SOLID
 70
     1
 71
     1
 91
        1
 92
        3
 72
     0
 73
     1
 93
        4
 10
25.207031250000004
 20
25.232667279411768
 10
26.807031250000005
 20
25.232667279411768
 10
26.807031250000005
 20
26.409137867647061
 10
25.207031250000004
 20
26.409137867647061
 97
        1
330
1C5
 75
     0
 76
     1
 98
        0
  0
LWPOLYLINE
  5
1C7
102
{ACAD_REACTORS
330
1C8
102
}
100
AcDbEntity
  8
0
  6
CONTINUOUS
 62
     7
100
AcDbPolyline
 90
        4
 70
     1
 10
25.207031
 20
26.997373
 10
26.807031
 20
26.997373
 10
26.807031
 20
28.173844
 10
25.207031
 20
28.173844
  0
HATCH
  5
1C8
100
AcDbEntity
  8
0
 62
     3
100
AcDbHatch
 10
0.0
 20
0.0
 30
0.0
210
0.0
220
0.0
230
1.0
  2
SOLID
 70
     1
 71
     1
 91
        2
 92
        3
 72
     0
 73
     1
 93
        4
 10
25.207031250000004
 20
26.997373161764699
 10
26.807031250000005
 20
26.997373161764699
 10
26.807031250000005
 20
28.173843749999993
 10
25.207031250000004
 20
28.173843749999993
 97
        1
330
1C7
 92
        3
 72
     0
 73
     1
 93
        4
 10
25.207031250000004
 20
23.467961397058829
 10
26.807031250000005
 20
23.467961397058829
 10
26.807031250000005
 20
24.644431985294119
 10
25.207031250000004
 20
24.644431985294119
 97
        1
330
1C9
 75
     0
 76
     1
 98
        0
  0
LWPOLYLINE
  5
1C9
102
{ACAD_REACTORS
330
1C8
102
}
100
AcDbEntity
  8
0
  6
CONTINUOUS
 62
     7
100
AcDbPolyline
 90
        4
 70
     1
 10
25.207031
 20
23.467961
 10
26.807031
 20
23.467961
 10
26.807031
 20
24.644432
 10
25.207031
 20
24.644432
  0
LWPOLYLINE
  5
1CA
100
AcDbEntity
  8
0
  6
CONTINUOUS
 62
     7
100
AcDbPolyline
 90
        3
 70
     0
 10
24.802865
 20
27.585608
 10
24.802865
 20
24.056197
 10
25.207031
 20
24.056197
  0
LINE
  5
1CB
100
AcDbEntity
  8
0
  6
CONTINUOUS
 62
     7
100
AcDbLine
 10
25.207031
 20
25.820903
 30
0.0
 11
24.802865
 21
25.820903
 31
0.0
  0
LINE
  5
1CC
100
AcDbEntity
  8
0
  6
CONTINUOUS
 62
     7
100
AcDbLine
 10
24.407031
 20
27.585608
 30
0.0
 11
25.207031
 21
27.585608
 31
0.0
  0
ENDBLK
  5
1CD
100
AcDbEntity
  8
0
100
AcDbBlockEnd
  0
BLOCK
  5
1CF
100
AcDbEntity
  8
0
100
AcDbBlockBegin
  2
UNBEKANNT
 70
     0
 10
0.0
 20
0.0
 30
0.0
  3
UNBEKANNT
  1

  0
MTEXT
  5
1D0
100
AcDbEntity
  8
0
100
AcDbMText
 10
25.4
 20
21.276607
 30
0.0
 40
1.540968
 41
11.797331
 71
     5
 72
     5
  1
\C7;\fArial|b0|i0|;\H1.5409676972777;Unbekannt
  0
LWPOLYLINE
  5
1D1
102
{ACAD_REACTORS
330
1D2
102
}
100
AcDbEntity
  8
0
  6
CONTINUOUS
 62
     7
100
AcDbPolyline
 90
        2
 70
     1
 10
23.051515
 20
25.324242
 42
-1.0
 10
27.9
 20
25.324242
 42
-1.0
  0
HATCH
  5
1D2
100
AcDbEntity
  8
0
 62
   251
100
AcDbHatch
 10
0.0
 20
0.0
 30
0.0
210
0.0
220
0.0
230
1.0
  2
SOLID
 70
     1
 71
     1
 91
        1
 92
        3
 72
     1
 73
     1
 93
        2
 10
23.051515151515147
 20
25.324242424242421
 42
-0.9999999999999994
 10
27.899999999999999
 20
25.324242424242421
 42
-0.9999999999999997
 97
        1
330
1D1
 75
     0
 76
     1
 98
        0
  0
LWPOLYLINE
  5
1D3
102
{ACAD_REACTORS
330
1D4
102
}
100
AcDbEntity
  8
0
  6
CONTINUOUS
 62
     7
100
AcDbPolyline
 90
        2
 70
     1
 10
22.9
 20
25.475758
 42
-1.0
 10
27.748485
 20
25.475758
 42
-1.0
  0
HATCH
  5
1D4
100
AcDbEntity
  8
0
 62
   253
100
AcDbHatch
 10
0.0
 20
0.0
 30
0.0
210
0.0
220
0.0
230
1.0
  2

 70
     1
 71
     1
 91
        1
 92
        3
 72
     1
 73
     1
 93
        2
 10
22.899999999999995
 20
25.475757575757537
 42
-1.0000000000000071
 10
27.748484848484846
 20
25.475757575757573
 42
-0.9999999999999997
 97
        1
330
1D3
 75
     0
 76
     1
 98
        0
  0
LWPOLYLINE
  5
1D5
102
{ACAD_REACTORS
330
1D6
102
}
100
AcDbEntity
  8
0
  6
CONTINUOUS
 62
     7
100
AcDbPolyline
 90
        2
 70
     1
 10
23.24632
 20
25.475758
 42
-1.0
 10
27.402165
 20
25.475758
 42
-1.0
  0
HATCH
  5
1D6
100
AcDbEntity
  8
0
 62
     2
100
AcDbHatch
 10
0.0
 20
0.0
 30
0.0
210
0.0
220
0.0
230
1.0
  2
SOLID
 70
     1
 71
     1
 91
        1
 92
        3
 72
     1
 73
     1
 93
        2
 10
23.246320346320339
 20
25.475757575757573
 42
-0.9999999999999999
 10
27.402164502164503
 20
25.475757575757573
 42
-1.0000000000000071
 97
        1
330
1D5
 75
     0
 76
     1
 98
        0
  0
LWPOLYLINE
  5
1D7
102
{ACAD_REACTORS
330
1D8
102
}
100
AcDbEntity
  8
0
  6
CONTINUOUS
 62
     7
100
AcDbPolyline
 90
       75
 70
     1
 10
25.547942
 20
24.901651
 10
25.21071
 20
24.901651
 10
24.873477
 20
24.901651
 10
24.873477
 20
24.948706
 10
24.873477
 20
24.987919
 10
24.873477
 20
25.089872
 10
24.88132
 20
25.183982
 10
24.897005
 20
25.27025
 10
24.912691
 20
25.340833
 10
24.959746
 20
25.474156
 10
25.03033
 20
25.583952
 10
25.077385
 20
25.654535
 10
25.155812
 20
25.740803
 10
25.249923
 20
25.850599
 10
25.375405
 20
25.983922
 10
25.438146
 20
26.054505
 10
25.485201
 20
26.125088
 10
25.508729
 20
26.187828
 10
25.516572
 20
26.250569
 10
25.516572
 20
26.313309
 10
25.500887
 20
26.360364
 10
25.461673
 20
26.446632
 10
25.430303
 20
26.47016
 10
25.383247
 20
26.493688
 10
25.336192
 20
26.50153
 10
25.281293
 20
26.509373
 10
25.226395
 20
26.50153
 10
25.171497
 20
26.485845
 10
25.124441
 20
26.454475
 10
25.077385
 20
26.40742
 10
25.038172
 20
26.344679
 10
25.006802
 20
26.258411
 10
24.983274
 20
26.156458
 10
24.967589
 20
26.03882
 10
24.630356
 20
26.093718
 10
24.285281
 20
26.148615
 10
24.316652
 20
26.376049
 10
24.37155
 20
26.579956
 10
24.457819
 20
26.760334
 10
24.559773
 20
26.917185
 10
24.622514
 20
26.987768
 10
24.693097
 20
27.042666
 10
24.771523
 20
27.097564
 10
24.865635
 20
27.136776
 10
24.959746
 20
27.168147
 10
25.0617
 20
27.191674
 10
25.179339
 20
27.199517
 10
25.296979
 20
27.207359
 10
25.477359
 20
27.191674
 10
25.642054
 20
27.160304
 10
25.791063
 20
27.097564
 10
25.916545
 20
27.003453
 10
25.994971
 20
26.93287
 10
26.057712
 20
26.854445
 10
26.11261
 20
26.768177
 10
26.159666
 20
26.681909
 10
26.191037
 20
26.587798
 10
26.214564
 20
26.493688
 10
26.23025
 20
26.383892
 10
26.238092
 20
26.274096
 10
26.23025
 20
26.179986
 10
26.222407
 20
26.085875
 10
26.198879
 20
25.991765
 10
26.159666
 20
25.905497
 10
26.104768
 20
25.811386
 10
26.034184
 20
25.709433
 10
25.93223
 20
25.599637
 10
25.814591
 20
25.474156
 10
25.736165
 20
25.387888
 10
25.673424
 20
25.317306
 10
25.626368
 20
25.246723
 10
25.594998
 20
25.183982
 10
25.57147
 20
25.129084
 10
25.563627
 20
25.058501
 10
25.547942
 20
24.987919
  0
HATCH
  5
1D8
100
AcDbEntity
  8
0
 62
     7
100
AcDbHatch
 10
0.0
 20
0.0
 30
0.0
210
0.0
220
0.0
230
1.0
  2
SOLID
 70
     1
 71
     1
 91
        2
 92
        3
 72
     0
 73
     1
 93
       75
 10
25.547942240407984
 20
24.901650529959362
 10
25.210709838107093
 20
24.901650529959362
 10
24.873477435806198
 20
24.901650529959362
 10
24.873477435806198
 20
24.94870581113079
 10
24.873477435806198
 20
24.987918545440312
 10
24.873477435806198
 20
25.089871654645073
 10
24.881320049813194
 20
25.183982216987928
 10
24.897005277827187
 20
25.270250232468879
 10
24.912690505841184
 20
25.340833154226019
 10
24.95974618988317
 20
25.474156450878397
 10
25.030329715946149
 20
25.583952106945059
 10
25.077385399988131
 20
25.654535028702199
 10
25.155811540058107
 20
25.740803044183149
 10
25.249922908142079
 20
25.850598700249815
 10
25.37540473225404
 20
25.983921996902193
 10
25.438145644310023
 20
26.05450491865933
 10
25.485201328352005
 20
26.125087840416477
 10
25.508729170373002
 20
26.187828215311708
 10
25.516571784379995
 20
26.250568590206946
 10
25.516571784379995
 20
26.313308965102184
 10
25.500886556366002
 20
26.360364246273612
 10
25.461673486331012
 20
26.446632261754562
 10
25.430303030303023
 20
26.470159902340274
 10
25.38324734626104
 20
26.493687542925986
 10
25.336191662219054
 20
26.501530089787895
 10
25.281293364170072
 20
26.5093726366498
 10
25.226395066121086
 20
26.501530089787895
 10
25.171496768072103
 20
26.485844996064081
 10
25.124441084030121
 20
26.454474808616467
 10
25.077385399988131
 20
26.407419527445036
 10
25.038172329953145
 20
26.344679152549805
 10
25.006801873925156
 20
26.258411137068851
 10
24.983274031904163
 20
26.156458027864094
 10
24.967588803890166
 20
26.038819824935523
 10
24.630356401589271
 20
26.093717652968856
 10
24.28528138528138
 20
26.148615481002189
 10
24.316651841309369
 20
26.376049339997422
 10
24.371550139358352
 20
26.57995555840694
 10
24.457818893435327
 20
26.760334136230743
 10
24.559772875526292
 20
26.917185073468836
 10
24.622513787582275
 20
26.987767995225976
 10
24.693097313645254
 20
27.042665823259309
 10
24.771523453715226
 20
27.097563651292642
 10
24.865634821799201
 20
27.136776385602165
 10
24.95974618988317
 20
27.168146573049778
 10
25.061700171974138
 20
27.191674213635491
 10
25.179339382079103
 20
27.199516760497399
 10
25.296978592184065
 20
27.207359307359305
 10
25.477358714345005
 20
27.191674213635491
 10
25.64205360849196
 20
27.16030402618788
 10
25.791063274624911
 20
27.097563651292642
 10
25.916545098736872
 20
27.003453088949783
 10
25.994971238806851
 20
26.932870167192643
 10
26.05771215086283
 20
26.854444698573598
 10
26.112610448911813
 20
26.768176683092648
 10
26.159666132953799
 20
26.681908667611697
 10
26.191036588981788
 20
26.587798105268845
 10
26.214564431002781
 20
26.493687542925986
 10
26.230249659016774
 20
26.383891886859324
 10
26.238092273023774
 20
26.274096230792658
 10
26.230249659016774
 20
26.179985668449806
 10
26.222407045009781
 20
26.08587510610695
 10
26.198879202988788
 20
25.991764543764099
 10
26.159666132953799
 20
25.905496528283148
 10
26.104767834904813
 20
25.811385965940289
 10
26.034184308841834
 20
25.709432856735532
 10
25.932230326750869
 20
25.599637200668866
 10
25.814591116645904
 20
25.474156450878397
 10
25.736164976575932
 20
25.387888435397446
 10
25.673424064519949
 20
25.317305513640306
 10
25.626368380477963
 20
25.246722591883163
 10
25.594997924449974
 20
25.183982216987928
 10
25.571470082428981
 20
25.129084388954595
 10
25.563627468421984
 20
25.058501467197456
 10
25.547942240407984
 20
24.987918545440312
 97
        1
330
1D7
 92
        3
 72
     0
 73
     1
 93
        8
 10
24.849949593785205
 20
24.682059217826033
 10
25.210709838107093
 20
24.682059217826033
 10
25.571470082428981
 20
24.682059217826033
 10
25.571470082428981
 20
24.274246781006998
 10
25.571470082428981
 20
23.874276891049863
 10
25.210709838107093
 20
23.874276891049863
 10
24.849949593785205
 20
23.874276891049863
 10
24.849949593785205
 20
24.274246781006998
 97
        1
330
1D9
 75
     0
 76
     1
 98
        0
  0
LWPOLYLINE
  5
1D9
102
{ACAD_REACTORS
330
1D8
102
}
100
AcDbEntity
  8
0
  6
CONTINUOUS
 62
     7
100
AcDbPolyline
 90
        8
 70
     1
 10
24.84995
 20
24.682059
 10
25.21071
 20
24.682059
 10
25.57147
 20
24.682059
 10
25.57147
 20
24.274247
 10
25.57147
 20
23.874277
 10
25.21071
 20
23.874277
 10
24.84995
 20
23.874277
 10
24.84995
 20
24.274247
  0
ENDBLK
  5
1DA
100
AcDbEntity
  8
0
100
AcDbBlockEnd
  0
BLOCK
  5
1DC
100
AcDbEntity
  8
0
100
AcDbBlockBegin
  2
ALLGEMEINES_OBJEKT
 70
     0
 10
0.0
 20
0.0
 30
0.0
  3
ALLGEMEINES_OBJEKT
  1

  0
MTEXT
  5
1DD
100
AcDbEntity
  8
0
100
AcDbMText
 10
26.491406
 20
22.62997
 30
0.0
 40
1.540968
 41
12.5
 71
     5
 72
     5
  1
\C7;\fArial|b0|i0|;\H1.5409676972777;Allgemeines \PObjekt
  0
LWPOLYLINE
  5
1DE
102
{ACAD_REACTORS
330
1DF
102
}
100
AcDbEntity
  8
0
  6
CONTINUOUS
 62
     7
100
AcDbPolyline
 90
        7
 70
     1
 10
24.225781
 20
29.917969
 10
24.225781
 20
25.542969
 10
29.225781
 20
25.542969
 10
29.225781
 20
29.917969
 10
26.725781
 20
29.917969
 10
26.725781
 20
30.542969
 10
24.225781
 20
30.542969
  0
HATCH
  5
1DF
100
AcDbEntity
  8
0
 62
   252
100
AcDbHatch
 10
0.0
 20
0.0
 30
0.0
210
0.0
220
0.0
230
1.0
  2
SOLID
 70
     1
 71
     1
 91
        1
 92
        3
 72
     0
 73
     1
 93
        7
 10
24.225781249999997
 20
29.917968749999996
 10
24.225781249999997
 20
25.54296875
 10
29.225781249999997
 20
25.54296875
 10
29.225781249999997
 20
29.917968749999996
 10
26.725781249999997
 20
29.917968749999996
 10
26.725781249999997
 20
30.542968749999996
 10
24.225781249999997
 20
30.542968749999996
 97
        1
330
1DE
 75
     0
 76
     1
 98
        0
  0
LWPOLYLINE
  5
1E0
102
{ACAD_REACTORS
330
1E1
102
}
100
AcDbEntity
  8
0
  6
CONTINUOUS
 62
     7
100
AcDbPolyline
 90
        7
 70
     1
 10
23.991406
 20
30.152344
 10
23.991406
 20
25.777344
 10
28.991406
 20
25.777344
 10
28.991406
 20
30.152344
 10
26.491406
 20
30.152344
 10
26.491406
 20
30.777344
 10
23.991406
 20
30.777344
  0
HATCH
  5
1E1
100
AcDbEntity
  8
0
 62
     7
100
AcDbHatch
 10
0.0
 20
0.0
 30
0.0
210
0.0
220
0.0
230
1.0
  2

 70
     1
 71
     1
 91
        1
 92
        3
 72
     0
 73
     1
 93
        7
 10
23.991406249999997
 20
30.15234375
 10
23.991406249999997
 20
25.777343749999996
 10
28.991406250000001
 20
25.777343749999996
 10
28.991406250000001
 20
30.15234375
 10
26.491406249999997
 20
30.15234375
 10
26.491406249999997
 20
30.77734375
 10
23.991406249999997
 20
30.77734375
 97
        1
330
1E0
 75
     0
 76
     1
 98
        0
  0
LINE
  5
1E2
100
AcDbEntity
  8
0
  6
CONTINUOUS
 62
     4
100
AcDbLine
 10
28.991406
 20
27.798177
 30
0.0
 11
24.616406
 21
27.798177
 31
0.0
  0
LINE
  5
1E3
100
AcDbEntity
  8
0
  6
CONTINUOUS
 62
     4
100
AcDbLine
 10
28.991406
 20
28.423177
 30
0.0
 11
24.616406
 21
28.423177
 31
0.0
  0
LINE
  5
1E4
100
AcDbEntity
  8
0
  6
CONTINUOUS
 62
     4
100
AcDbLine
 10
28.991406
 20
29.048177
 30
0.0
 11
24.616406
 21
29.048177
 31
0.0
  0
LINE
  5
1E5
100
AcDbEntity
  8
0
  6
CONTINUOUS
 62
     4
100
AcDbLine
 10
28.991406
 20
29.673177
 30
0.0
 11
24.616406
 21
29.673177
 31
0.0
  0
LINE
  5
1E6
100
AcDbEntity
  8
0
  6
CONTINUOUS
 62
     4
100
AcDbLine
 10
28.991406
 20
26.548177
 30
0.0
 11
24.616406
 21
26.548177
 31
0.0
  0
LINE
  5
1E7
100
AcDbEntity
  8
0
  6
CONTINUOUS
 62
     4
100
AcDbLine
 10
28.991406
 20
27.173177
 30
0.0
 11
24.616406
 21
27.173177
 31
0.0
  0
ENDBLK
  5
1E8
100
AcDbEntity
  8
0
100
AcDbBlockEnd
  0
BLOCK
  5
1EA
100
AcDbEntity
  8
0
100
AcDbBlockBegin
  2
VERZEICHNIS-_VERBINDER
 70
     0
 10
0.0
 20
0.0
 30
0.0
  3
VERZEICHNIS-_VERBINDER
  1

  0
LINE
  5
1EB
100
AcDbEntity
  8
0
  6
CONTINUOUS
 62
     7
100
AcDbLine
 10
20.0
 20
30.0
 30
0.0
 11
30.0
 21
20.0
 31
0.0
  0
ENDBLK
  5
1EC
100
AcDbEntity
  8
0
100
AcDbBlockEnd
  0
BLOCK
  5
1EE
100
AcDbEntity
  8
0
100
AcDbBlockBegin
  2
WWW-_CLUSTER
 70
     0
 10
0.0
 20
0.0
 30
0.0
  3
WWW-_CLUSTER
  1

  0
ENDBLK
  5
1EF
100
AcDbEntity
  8
0
100
AcDbBlockEnd
  0
BLOCK
  5
1F1
100
AcDbEntity
  8
0
100
AcDbBlockBegin
  2
DF\U+00DC-_VERBINDUNG
 70
     0
 10
0.0
 20
0.0
 30
0.0
  3
DF\U+00DC-_VERBINDUNG
  1

  0
LWPOLYLINE
  5
1F2
102
{ACAD_REACTORS
330
1F3
102
}
100
AcDbEntity
  8
0
  6
CONTINUOUS
 62
     7
100
AcDbPolyline
 90
        6
 70
     1
 10
0.169333
 20
9.553222
 10
16.044333
 20
12.728222
 10
13.663083
 20
8.283222
 10
25.569333
 20
9.553222
 10
9.694333
 20
6.378222
 10
12.075583
 20
10.823222
  0
HATCH
  5
1F3
100
AcDbEntity
  8
0
 62
     2
100
AcDbHatch
 10
0.0
 20
0.0
 30
0.0
210
0.0
220
0.0
230
1.0
  2
SOLID
 70
     1
 71
     1
 91
        1
 92
        3
 72
     0
 73
     1
 93
        6
 10
0.1693333333333344
 20
9.5532222222222192
 10
16.044333333333334
 20
12.72822222222222
 10
13.663083333333333
 20
8.283222222222216
 10
25.569333333333336
 20
9.5532222222222192
 10
9.6943333333333346
 20
6.3782222222222194
 10
12.075583333333334
 20
10.823222222222219
 97
        1
330
1F2
 75
     0
 76
     1
 98
        0
  0
ENDBLK
  5
1F4
100
AcDbEntity
  8
0
100
AcDbBlockEnd
  0
BLOCK
  5
1F6
100
AcDbEntity
  8
0
100
AcDbBlockBegin
  2
PEER-TO-PEER
 70
     2
 10
0.0
 20
0.0
 30
0.0
  3
PEER-TO-PEER
  1

  0
ATTDEF
  5
1F7
100
AcDbEntity
  8
0
100
AcDbText
 10
13.208
 20
19.558
 30
0.0
 40
0.2
  1

100
AcDbAttributeDefinition
  3
Hersteller
  2
MANUFACTURER
 70
     0
  0
ATTDEF
  5
1F8
100
AcDbEntity
  8
0
100
AcDbText
 10
13.208
 20
19.558
 30
0.0
 40
0.2
  1

100
AcDbAttributeDefinition
  3
Produktnummer
  2
PRODUCTNUMBER
 70
     0
  0
ATTDEF
  5
1F9
100
AcDbEntity
  8
0
100
AcDbText
 10
13.208
 20
19.558
 30
0.0
 40
0.2
  1

100
AcDbAttributeDefinition
  3
Artikelnummer
  2
PARTNUMBER
 70
     0
  0
ATTDEF
  5
1FA
100
AcDbEntity
  8
0
100
AcDbText
 10
13.208
 20
19.558
 30
0.0
 40
0.2
  1
Peer-to-Peer
100
AcDbAttributeDefinition
  3
Produktbeschreibung
  2
PRODUCTDESCRIPTION
 70
     0
  0
LWPOLYLINE
  5
1FC
100
AcDbEntity
  8
0
  6
DOT
 62
     7
100
AcDbPolyline
 90
        4
 70
     1
 10
13.208
 20
7.058
 10
25.708
 20
19.558
 10
13.208
 20
32.058
 10
0.708
 20
19.558
  0
MTEXT
  5
1FD
100
AcDbEntity
  8
0
100
AcDbMText
 10
13.208
 20
19.558
 30
0.0
 40
2.054647
 41
25.0
 71
     5
 72
     5
  1
\C7;\fArial|b0|i0|;\H2.0546471100301;Peer-to-Peer
  0
ENDBLK
  5
1FE
100
AcDbEntity
  8
0
100
AcDbBlockEnd
  0
BLOCK
  5
200
100
AcDbEntity
  8
0
100
AcDbBlockBegin
  2
MASTER_47
 70
     0
 10
0.0
 20
0.0
 30
0.0
  3
MASTER_47
  1

  0
LWPOLYLINE
  5
201
100
AcDbEntity
  8
0
  6
CONTINUOUS
 62
     7
100
AcDbPolyline
 90
        2
 70
     1
 10
28.625
 20
0.966667
 10
28.625
 20
10.583333
  0
LWPOLYLINE
  5
202
100
AcDbEntity
  8
0
  6
CONTINUOUS
 62
     7
100
AcDbPolyline
 90
        2
 70
     1
 10
0.0
 20
0.966667
 10
0.0
 20
10.583333
  0
LINE
  5
203
100
AcDbEntity
  8
0
  6
CONTINUOUS
 62
     7
100
AcDbLine
 10
37.08828
 20
5.2
 30
0.0
 11
28.625
 21
5.2
 31
0.0
  0
LINE
  5
204
100
AcDbEntity
  8
0
  6
CONTINUOUS
 62
     7
100
AcDbLine
 10
-8.46328
 20
5.2
 30
0.0
 11
0.0
 21
5.2
 31
0.0
  0
MTEXT
  5
205
100
AcDbEntity
  8
0
100
AcDbMText
 10
16.134091
 20
10.299565
 30
0.0
 40
1.540968
 41
20.529775
 71
     5
 72
     5
  1
\C7;\fArial|b0|i0|;\H1.5409676972777;28,63mm.
  0
ENDBLK
  5
206
100
AcDbEntity
  8
0
100
AcDbBlockEnd
  0
BLOCK
  5
208
100
AcDbEntity
  8
0
100
AcDbBlockBegin
  2
MASTER_48
 70
     2
 10
0.0
 20
0.0
 30
0.0
  3
MASTER_48
  1

  0
LWPOLYLINE
  5
209
100
AcDbEntity
  8
0
  6
CONTINUOUS
 62
     7
100
AcDbPolyline
 90
        2
 70
     1
 10
0.620571
 20
2.028238
 42
-1.0
 10
3.424933
 20
2.028238
 42
-1.0
  0
LWPOLYLINE
  5
20A
100
AcDbEntity
  8
0
  6
CONTINUOUS
 62
     7
100
AcDbPolyline
 90
        4
 70
     1
 10
3.31033
 20
3.562714
 42
-0.722177
 10
1.498831
 20
-0.147022
 42
0.722177
 10
3.31033
 20
3.562714
 42
0.722177
 10
-0.028484
 20
1.134547
 42
-0.722177
  0
ENDBLK
  5
20B
100
AcDbEntity
  8
0
100
AcDbBlockEnd
  0
BLOCK
  5
20D
100
AcDbEntity
  8
0
100
AcDbBlockBegin
  2
MASTER_49
 70
     0
 10
0.0
 20
0.0
 30
0.0
  3
MASTER_49
  1

  0
LWPOLYLINE
  5
20E
100
AcDbEntity
  8
0
  6
CONTINUOUS
 62
     7
100
AcDbPolyline
 90
        2
 70
     1
 10
-11.533333
 20
0.0
 10
10.583333
 20
0.0
  0
LWPOLYLINE
  5
20F
100
AcDbEntity
  8
0
  6
CONTINUOUS
 62
     7
100
AcDbPolyline
 90
        2
 70
     1
 10
-11.533333
 20
27.0
 10
10.583333
 20
27.0
  0
LINE
  5
210
100
AcDbEntity
  8
0
  6
CONTINUOUS
 62
     7
100
AcDbLine
 10
-7.3
 20
-8.46328
 30
0.0
 11
-7.3
 21
0.0
 31
0.0
  0
LINE
  5
211
100
AcDbEntity
  8
0
  6
CONTINUOUS
 62
     7
100
AcDbLine
 10
-7.3
 20
35.46328
 30
0.0
 11
-7.3
 21
27.0
 31
0.0
  0
MTEXT
  5
212
100
AcDbEntity
  8
0
100
AcDbMText
 10
-10.899564
 20
13.0
 30
0.0
 40
1.540968
 41
20.529775
 71
     5
 72
     5
  1
\C7;\fArial|b0|i0|;\H1.5409676972777;27,00mm.
 11
0.0
 21
1.0
 31
0.0
  0
ENDBLK
  5
213
100
AcDbEntity
  8
0
100
AcDbBlockEnd
  0
BLOCK
  5
215
100
AcDbEntity
  8
0
100
AcDbBlockBegin
  2
MASTER_50
 70
     2
 10
0.0
 20
0.0
 30
0.0
  3
MASTER_50
  1

  0
ATTDEF
  5
216
100
AcDbEntity
  8
0
100
AcDbText
 10
25.5
 20
12.7
 30
0.0
 40
0.2
  1
0.00
100
AcDbAttributeDefinition
  3
Genauigkeit
  2
LPREC
 70
     0
  0
ATTDEF
  5
217
100
AcDbEntity
  8
0
100
AcDbText
 10
25.5
 20
12.7
 30
0.0
 40
0.2
  1
 Einheiten des Zeichenblattes verwenden
100
AcDbAttributeDefinition
  3
Ma\U+00DFeinheiten
  2
LUNITS
 70
     0
  0
ATTDEF
  5
218
100
AcDbEntity
  8
0
100
AcDbText
 10
25.5
 20
12.7
 30
0.0
 40
0.2
  1
Ma\U+00DFeinheiten anzeigen
100
AcDbAttributeDefinition
  3
Ma\U+00DFeinheiten-Anzeige
  2
SHOWUNITS
 70
     0
  0
ATTDEF
  5
219
100
AcDbEntity
  8
0
100
AcDbText
 10
25.5
 20
12.7
 30
0.0
 40
0.2
  1
Beide
100
AcDbAttributeDefinition
  3
Erweiterungslinien
  2
EXTENSIONS
 70
     0
  0
LWPOLYLINE
  5
21A
100
AcDbEntity
  8
0
  6
CONTINUOUS
 62
     7
100
AcDbPolyline
 90
        2
 70
     1
 10
25.5
 20
-11.533333
 10
25.5
 20
10.583333
  0
LWPOLYLINE
  5
21B
100
AcDbEntity
  8
0
  6
CONTINUOUS
 62
     7
100
AcDbPolyline
 90
        2
 70
     1
 10
0.0
 20
-11.533333
 10
0.0
 20
10.583333
  0
LINE
  5
21C
100
AcDbEntity
  8
0
  6
CONTINUOUS
 62
     7
100
AcDbLine
 10
33.96328
 20
-7.3
 30
0.0
 11
25.5
 21
-7.3
 31
0.0
  0
LINE
  5
21D
100
AcDbEntity
  8
0
  6
CONTINUOUS
 62
     7
100
AcDbLine
 10
-8.46328
 20
-7.3
 30
0.0
 11
0.0
 21
-7.3
 31
0.0
  0
MTEXT
  5
21E
100
AcDbEntity
  8
0
100
AcDbMText
 10
16.392857
 20
-3.700435
 30
0.0
 40
1.540968
 41
20.529775
 71
     5
 72
     5
  1
\C7;\fArial|b0|i0|;\H1.5409676972777;25,50mm.
  0
ENDBLK
  5
21F
100
AcDbEntity
  8
0
100
AcDbBlockEnd
  0
BLOCK
  5
221
100
AcDbEntity
  8
0
100
AcDbBlockBegin
  2
MASTER_51
 70
     2
 10
0.0
 20
0.0
 30
0.0
  3
MASTER_51
  1

  0
LWPOLYLINE
  5
222
100
AcDbEntity
  8
0
  6
CONTINUOUS
 62
     7
100
AcDbPolyline
 90
        3
 70
     0
 10
58.5
 20
12.804444
 10
18.5
 20
12.804444
 10
0.0
 20
0.0
  0
MTEXT
  5
223
100
AcDbEntity
  8
0
100
AcDbMText
 10
-6.616381
 20
0.0
 30
0.0
 40
1.540968
 41
13.232762
 71
     5
 72
     5
  1
\C7;\fArial|b0|i0|;\H1.5409676972777;M6
  0
ENDBLK
  5
224
100
AcDbEntity
  8
0
100
AcDbBlockEnd
  0
BLOCK
  5
226
100
AcDbEntity
  8
0
100
AcDbBlockBegin
  2
GEWINDELOCH_1
 70
     0
 10
0.0
 20
0.0
 30
0.0
  3
GEWINDELOCH_1
  1

  0
LWPOLYLINE
  5
227
100
AcDbEntity
  8
0
  6
CONTINUOUS
 62
     7
100
AcDbPolyline
 90
        2
 70
     1
 10
23.25
 20
25.0
 42
-1.0
 10
26.75
 20
25.0
 42
-1.0
  0
LWPOLYLINE
  5
228
100
AcDbEntity
  8
0
  6
CONTINUOUS
 62
     7
100
AcDbPolyline
 90
        4
 70
     1
 10
26.606969
 20
26.915111
 42
-0.895043
 10
23.776053
 20
22.763495
 42
0.895043
 10
26.606969
 20
26.915111
 42
0.895043
 10
23.010009
 20
23.406283
 42
-0.895043
  0
ENDBLK
  5
229
100
AcDbEntity
  8
0
100
AcDbBlockEnd
  0
BLOCK
  5
22B
100
AcDbEntity
  8
0
100
AcDbBlockBegin
  2
MATRIX
 70
     0
 10
0.0
 20
0.0
 30
0.0
  3
MATRIX
  1

  0
LWPOLYLINE
  5
22C
100
AcDbEntity
  8
0
  6
CONTINUOUS
 62
     6
100
AcDbPolyline
 90
        4
 70
     1
 10
5.0
 20
5.0
 10
292.0
 20
5.0
 10
292.0
 20
215.396463
 10
5.0
 20
215.396463
  0
LINE
  5
22D
100
AcDbEntity
  8
0
  6
CONTINUOUS
 62
     7
100
AcDbLine
 10
44.625
 20
210.396463
 30
0.0
 11
44.625
 21
215.396463
 31
0.0
  0
LINE
  5
22E
100
AcDbEntity
  8
0
  6
CONTINUOUS
 62
     7
100
AcDbLine
 10
79.25
 20
210.396463
 30
0.0
 11
79.25
 21
215.396463
 31
0.0
  0
LINE
  5
22F
100
AcDbEntity
  8
0
  6
CONTINUOUS
 62
     7
100
AcDbLine
 10
113.875
 20
210.396463
 30
0.0
 11
113.875
 21
215.396463
 31
0.0
  0
LINE
  5
230
100
AcDbEntity
  8
0
  6
CONTINUOUS
 62
     7
100
AcDbLine
 10
148.5
 20
210.396463
 30
0.0
 11
148.5
 21
215.396463
 31
0.0
  0
LINE
  5
231
100
AcDbEntity
  8
0
  6
CONTINUOUS
 62
     7
100
AcDbLine
 10
183.125
 20
210.396463
 30
0.0
 11
183.125
 21
215.396463
 31
0.0
  0
LINE
  5
232
100
AcDbEntity
  8
0
  6
CONTINUOUS
 62
     7
100
AcDbLine
 10
217.75
 20
210.396463
 30
0.0
 11
217.75
 21
215.396463
 31
0.0
  0
LINE
  5
233
100
AcDbEntity
  8
0
  6
CONTINUOUS
 62
     7
100
AcDbLine
 10
252.375
 20
210.396463
 30
0.0
 11
252.375
 21
215.396463
 31
0.0
  0
LINE
  5
234
100
AcDbEntity
  8
0
  6
CONTINUOUS
 62
     7
100
AcDbLine
 10
44.625
 20
10.0
 30
0.0
 11
44.625
 21
5.0
 31
0.0
  0
LINE
  5
235
100
AcDbEntity
  8
0
  6
CONTINUOUS
 62
     7
100
AcDbLine
 10
79.25
 20
10.0
 30
0.0
 11
79.25
 21
5.0
 31
0.0
  0
LINE
  5
236
100
AcDbEntity
  8
0
  6
CONTINUOUS
 62
     7
100
AcDbLine
 10
113.875
 20
10.0
 30
0.0
 11
113.875
 21
5.0
 31
0.0
  0
LINE
  5
237
100
AcDbEntity
  8
0
  6
CONTINUOUS
 62
     7
100
AcDbLine
 10
148.5
 20
10.0
 30
0.0
 11
148.5
 21
5.0
 31
0.0
  0
LINE
  5
238
100
AcDbEntity
  8
0
  6
CONTINUOUS
 62
     7
100
AcDbLine
 10
183.125
 20
10.0
 30
0.0
 11
183.125
 21
5.0
 31
0.0
  0
LINE
  5
239
100
AcDbEntity
  8
0
  6
CONTINUOUS
 62
     7
100
AcDbLine
 10
217.75
 20
10.0
 30
0.0
 11
217.75
 21
5.0
 31
0.0
  0
LINE
  5
23A
100
AcDbEntity
  8
0
  6
CONTINUOUS
 62
     7
100
AcDbLine
 10
252.375
 20
10.0
 30
0.0
 11
252.375
 21
5.0
 31
0.0
  0
LINE
  5
23B
100
AcDbEntity
  8
0
  6
CONTINUOUS
 62
     7
100
AcDbLine
 10
10.0
 20
185.346905
 30
0.0
 11
5.0
 21
185.346905
 31
0.0
  0
LINE
  5
23C
100
AcDbEntity
  8
0
  6
CONTINUOUS
 62
     7
100
AcDbLine
 10
10.0
 20
160.297347
 30
0.0
 11
5.0
 21
160.297347
 31
0.0
  0
LINE
  5
23D
100
AcDbEntity
  8
0
  6
CONTINUOUS
 62
     7
100
AcDbLine
 10
10.0
 20
135.247789
 30
0.0
 11
5.0
 21
135.247789
 31
0.0
  0
LINE
  5
23E
100
AcDbEntity
  8
0
  6
CONTINUOUS
 62
     7
100
AcDbLine
 10
10.0
 20
110.198231
 30
0.0
 11
5.0
 21
110.198231
 31
0.0
  0
LINE
  5
23F
100
AcDbEntity
  8
0
  6
CONTINUOUS
 62
     7
100
AcDbLine
 10
10.0
 20
85.148674
 30
0.0
 11
5.0
 21
85.148674
 31
0.0
  0
LINE
  5
240
100
AcDbEntity
  8
0
  6
CONTINUOUS
 62
     7
100
AcDbLine
 10
10.0
 20
60.099116
 30
0.0
 11
5.0
 21
60.099116
 31
0.0
  0
LINE
  5
241
100
AcDbEntity
  8
0
  6
CONTINUOUS
 62
     7
100
AcDbLine
 10
10.0
 20
35.049558
 30
0.0
 11
5.0
 21
35.049558
 31
0.0
  0
LINE
  5
242
100
AcDbEntity
  8
0
  6
CONTINUOUS
 62
     7
100
AcDbLine
 10
287.0
 20
185.346905
 30
0.0
 11
292.0
 21
185.346905
 31
0.0
  0
LINE
  5
243
100
AcDbEntity
  8
0
  6
CONTINUOUS
 62
     7
100
AcDbLine
 10
287.0
 20
160.297347
 30
0.0
 11
292.0
 21
160.297347
 31
0.0
  0
LINE
  5
244
100
AcDbEntity
  8
0
  6
CONTINUOUS
 62
     7
100
AcDbLine
 10
287.0
 20
135.247789
 30
0.0
 11
292.0
 21
135.247789
 31
0.0
  0
LINE
  5
245
100
AcDbEntity
  8
0
  6
CONTINUOUS
 62
     7
100
AcDbLine
 10
287.0
 20
110.198231
 30
0.0
 11
292.0
 21
110.198231
 31
0.0
  0
LINE
  5
246
100
AcDbEntity
  8
0
  6
CONTINUOUS
 62
     7
100
AcDbLine
 10
287.0
 20
85.148674
 30
0.0
 11
292.0
 21
85.148674
 31
0.0
  0
LINE
  5
247
100
AcDbEntity
  8
0
  6
CONTINUOUS
 62
     7
100
AcDbLine
 10
287.0
 20
60.099116
 30
0.0
 11
292.0
 21
60.099116
 31
0.0
  0
LINE
  5
248
100
AcDbEntity
  8
0
  6
CONTINUOUS
 62
     7
100
AcDbLine
 10
287.0
 20
35.049558
 30
0.0
 11
292.0
 21
35.049558
 31
0.0
  0
LWPOLYLINE
  5
249
100
AcDbEntity
  8
0
  6
CONTINUOUS
 62
     7
100
AcDbPolyline
 90
        4
 70
     1
 10
10.0
 20
210.396463
 10
10.0
 20
10.0
 10
287.0
 20
10.0
 10
287.0
 20
210.396463
  0
MTEXT
  5
24A
100
AcDbEntity
  8
0
100
AcDbMText
 10
289.5
 20
213.966627
 30
0.0
 40
3.082006
 41
5.0
 71
     2
 72
     5
  1
\C7;\fArial|b0|i0|;\H3.0820059355348;H\PG\PF\PE\PD\PC\PB\PA\P
  0
MTEXT
  5
24B
100
AcDbEntity
  8
0
100
AcDbMText
 10
5.0
 20
7.5
 30
0.0
 40
3.082006
 41
287.0
 71
     4
 72
     5
  1
\C7;\fArial|b0|i0|;\H3.0820059355348;87654321
  0
MTEXT
  5
24C
100
AcDbEntity
  8
0
100
AcDbMText
 10
7.5
 20
213.966627
 30
0.0
 40
3.082006
 41
5.0
 71
     2
 72
     5
  1
\C7;\fArial|b0|i0|;\H3.0820059355348;H\PG\PF\PE\PD\PC\PB\PA\P
  0
MTEXT
  5
24D
100
AcDbEntity
  8
0
100
AcDbMText
 10
5.0
 20
212.896463
 30
0.0
 40
3.082006
 41
287.0
 71
     4
 72
     5
  1
\C7;\fArial|b0|i0|;\H3.0820059355348;87654321
  0
ENDBLK
  5
24E
100
AcDbEntity
  8
0
100
AcDbBlockEnd
  0
BLOCK
  5
250
100
AcDbEntity
  8
0
100
AcDbBlockBegin
  2
MASTER_54
 70
     0
 10
0.0
 20
0.0
 30
0.0
  3
MASTER_54
  1

  0
LWPOLYLINE
  5
251
100
AcDbEntity
  8
0
  6
CONTINUOUS
 62
     7
100
AcDbPolyline
 90
        4
 70
     1
 10
0.0
 20
0.0
 10
40.0
 20
0.0
 10
40.0
 20
30.0
 10
0.0
 20
30.0
  0
ENDBLK
  5
252
100
AcDbEntity
  8
0
100
AcDbBlockEnd
  0
BLOCK
  5
254
100
AcDbEntity
  8
0
100
AcDbBlockBegin
  2
MA\U+00DF
 70
     0
 10
0.0
 20
0.0
 30
0.0
  3
MA\U+00DF
  1

  0
LWPOLYLINE
  5
255
100
AcDbEntity
  8
0
  6
CONTINUOUS
 62
     7
100
AcDbPolyline
 90
        2
 70
     1
 10
14.809829
 20
-10.380342
 10
19.526699
 20
-0.946602
  0
LWPOLYLINE
  5
256
100
AcDbEntity
  8
0
  6
CONTINUOUS
 62
     7
100
AcDbPolyline
 90
        2
 70
     1
 10
-5.190171
 20
-0.380342
 10
-0.473301
 20
9.053398
  0
LINE
  5
257
100
AcDbEntity
  8
0
  6
CONTINUOUS
 62
     7
100
AcDbLine
 10
5.756431
 20
-3.487138
 30
0.0
 11
15.756431
 21
-8.487138
 31
0.0
  0
LINE
  5
258
100
AcDbEntity
  8
0
  6
CONTINUOUS
 62
     7
100
AcDbLine
 10
5.756431
 20
-3.487138
 30
0.0
 11
-4.243569
 21
1.512862
 31
0.0
  0
MTEXT
  5
259
100
AcDbEntity
  8
0
100
AcDbMText
 10
9.666084
 20
-4.001164
 30
0.0
 40
1.540968
 41
9.676842
 71
     5
 72
     5
  1
\C7;\fArial|b0|i0|;\H1.5409676972777;22,36mm
 11
0.894427
 21
-0.447214
 31
0.0
  0
ENDBLK
  5
25A
100
AcDbEntity
  8
0
100
AcDbBlockEnd
  0
BLOCK
  5
25C
100
AcDbEntity
  8
0
100
AcDbBlockBegin
  2
M-LINIE
 70
     2
 10
0.0
 20
0.0
 30
0.0
  3
M-LINIE
  1

  0
LINE
  5
25D
100
AcDbEntity
  8
0
  6
DASHDOT
 62
     7
100
AcDbLine
 10
0.0
 20
5.0
 30
0.0
 11
8.0
 21
0.0
 31
0.0
  0
ENDBLK
  5
25E
100
AcDbEntity
  8
0
100
AcDbBlockEnd
  0
BLOCK
  5
260
100
AcDbEntity
  8
0
100
AcDbBlockBegin
  2
BOHRKREIS
 70
     0
 10
0.0
 20
0.0
 30
0.0
  3
BOHRKREIS
  1

  0
LWPOLYLINE
  5
261
100
AcDbEntity
  8
0
  6
CONTINUOUS
 62
     7
100
AcDbPolyline
 90
        2
 70
     1
 10
0.0
 20
2.25
 42
-1.0
 10
4.5
 20
2.25
 42
-1.0
  0
LWPOLYLINE
  5
262
100
AcDbEntity
  8
0
  6
CONTINUOUS
 62
     7
100
AcDbPolyline
 90
        2
 70
     1
 10
1.75
 20
2.25
 42
-1.0
 10
2.75
 20
2.25
 42
-1.0
  0
ENDBLK
  5
263
100
AcDbEntity
  8
0
100
AcDbBlockEnd
  0
BLOCK
  5
265
100
AcDbEntity
  8
0
100
AcDbBlockBegin
  2
BOHRUNG
 70
     0
 10
0.0
 20
0.0
 30
0.0
  3
BOHRUNG
  1

  0
LWPOLYLINE
  5
266
100
AcDbEntity
  8
0
  6
CONTINUOUS
 62
     7
100
AcDbPolyline
 90
        3
 70
     0
 10
33.0
 20
0.0
 10
17.595238
 20
0.0
 10
0.0
 20
33.0
  0
MTEXT
  5
267
100
AcDbEntity
  8
0
100
AcDbMText
 10
-19.192734
 20
0.0
 30
0.0
 40
1.540968
 41
38.385469
 71
     5
 72
     5
  1
\C7;\fArial|b0|i0|;\H1.5409676972777;\U+00D8 6 (Bohrungen f\U+00FCr Geh\U+00E4useflansch)
  0
ENDBLK
  5
268
100
AcDbEntity
  8
0
100
AcDbBlockEnd
  0
BLOCK
  5
26A
100
AcDbEntity
  8
0
100
AcDbBlockBegin
  2
MASTER_59
 70
     0
 10
0.0
 20
0.0
 30
0.0
  3
MASTER_59
  1

  0
LWPOLYLINE
  5
26B
100
AcDbEntity
  8
0
  6
CONTINUOUS
 62
     7
100
AcDbPolyline
 90
        2
 70
     1
 10
0.0
 20
20.0
 42
-1.0
 10
40.0
 20
20.0
 42
-1.0
  0
ENDBLK
  5
26C
100
AcDbEntity
  8
0
100
AcDbBlockEnd
  0
ENDSEC
  0
SECTION
  2
ENTITIES
  0
LWPOLYLINE
  5
31
102
{ACAD_REACTORS
330
9B
102
}
100
AcDbEntity
  8
0
  6
CONTINUOUS
 62
     7
100
AcDbPolyline
 90
       68
 70
     1
 10
286.0
 20
122.0
 10
286.0
 20
140.0
 42
-0.414214
 10
285.0
 20
141.0
 42
-1.0
 10
287.0
 20
141.0
 10
290.0
 20
141.0
 10
290.0
 20
155.0
 10
270.0
 20
155.0
 10
270.0
 20
152.0
 42
-0.414214
 10
271.0
 20
151.0
 42
-1.0
 10
269.0
 20
151.0
 10
231.0
 20
151.0
 42
-1.0
 10
229.0
 20
151.0
 42
-0.414214
 10
230.0
 20
152.0
 10
230.0
 20
155.0
 10
170.0
 20
155.0
 10
170.0
 20
152.0
 42
-0.414214
 10
171.0
 20
151.0
 42
-1.0
 10
169.0
 20
151.0
 10
131.0
 20
151.0
 42
-1.0
 10
129.0
 20
151.0
 42
-0.414214
 10
130.0
 20
152.0
 10
130.0
 20
155.0
 10
70.0
 20
155.0
 10
70.0
 20
152.0
 42
-0.414214
 10
71.0
 20
151.0
 42
-1.0
 10
69.0
 20
151.0
 10
31.0
 20
151.0
 42
-1.0
 10
29.0
 20
151.0
 42
-0.414214
 10
30.0
 20
152.0
 10
30.0
 20
155.0
 10
10.0
 20
155.0
 10
10.0
 20
141.0
 10
13.0
 20
141.0
 42
-1.0
 10
15.0
 20
141.0
 42
-0.414214
 10
14.0
 20
140.0
 10
14.0
 20
122.0
 42
-0.414214
 10
15.0
 20
121.0
 42
-1.0
 10
13.0
 20
121.0
 10
10.0
 20
121.0
 10
10.0
 20
107.0
 10
30.0
 20
107.0
 10
30.0
 20
110.0
 42
-0.414214
 10
29.0
 20
111.0
 42
-1.0
 10
31.0
 20
111.0
 10
69.0
 20
111.0
 42
-1.0
 10
71.0
 20
111.0
 42
-0.414214
 10
70.0
 20
110.0
 10
70.0
 20
107.0
 10
130.0
 20
107.0
 10
130.0
 20
110.0
 42
-0.414214
 10
129.0
 20
111.0
 42
-1.0
 10
131.0
 20
111.0
 10
169.0
 20
111.0
 42
-1.0
 10
171.0
 20
111.0
 42
-0.414214
 10
170.0
 20
110.0
 10
170.0
 20
107.0
 10
230.0
 20
107.0
 10
230.0
 20
110.0
 42
-0.414214
 10
229.0
 20
111.0
 42
-1.0
 10
231.0
 20
111.0
 10
269.0
 20
111.0
 42
-1.0
 10
271.0
 20
111.0
 42
-0.414214
 10
270.0
 20
110.0
 10
270.0
 20
107.0
 10
290.0
 20
107.0
 10
290.0
 20
121.0
 10
287.0
 20
121.0
 42
-1.0
 10
285.0
 20
121.0
 42
-0.414214
  0
LWPOLYLINE
  5
32
102
{ACAD_REACTORS
330
9B
102
}
100
AcDbEntity
  8
0
  6
CONTINUOUS
 62
     7
100
AcDbPolyline
 90
       62
 70
     1
 10
130.0
 20
199.0
 10
130.0
 20
202.0
 10
102.5
 20
202.0
 10
75.272293
 20
194.703328
 10
76.010954
 20
191.94661
 42
-0.513968
 10
77.333333
 20
191.0
 42
-0.831967
 10
75.399519
 20
190.642241
 10
38.584106
 20
180.777581
 42
-0.044662
 10
38.6
 20
180.6
 42
-1.0
 10
36.6
 20
180.6
 42
-0.350325
 10
37.378904
 20
181.575252
 10
36.635626
 20
184.349202
 10
10.75
 20
177.412191
 10
10.860446
 20
177.0
 10
10.0
 20
177.0
 10
10.0
 20
162.0
 10
29.0
 20
162.0
 42
-1.0
 10
31.0
 20
162.0
 42
-0.414214
 10
30.0
 20
161.0
 10
30.0
 20
158.0
 10
70.0
 20
158.0
 10
70.0
 20
161.0
 42
-0.414214
 10
69.0
 20
162.0
 42
-1.0
 10
71.0
 20
162.0
 10
129.0
 20
162.0
 42
-1.0
 10
131.0
 20
162.0
 42
-0.414214
 10
130.0
 20
161.0
 10
130.0
 20
158.0
 10
170.0
 20
158.0
 10
170.0
 20
161.0
 42
-0.414214
 10
169.0
 20
162.0
 42
-1.0
 10
171.0
 20
162.0
 10
229.0
 20
162.0
 42
-1.0
 10
231.0
 20
162.0
 42
-0.414214
 10
230.0
 20
161.0
 10
230.0
 20
158.0
 10
270.0
 20
158.0
 10
270.0
 20
161.0
 42
-0.414214
 10
269.0
 20
162.0
 42
-1.0
 10
271.0
 20
162.0
 10
290.0
 20
162.0
 10
290.0
 20
177.0
 10
289.222887
 20
177.0
 10
289.333333
 20
177.412191
 10
263.459369
 20
184.345099
 10
262.689522
 20
181.471991
 42
-0.271183
 10
263.2
 20
180.6
 42
-1.0
 10
261.2
 20
180.6
 42
-0.063902
 10
261.232402
 20
180.852496
 10
224.730302
 20
190.633205
 42
-0.827874
 10
222.8
 20
191.0
 42
-0.502638
 10
224.088086
 20
191.957604
 10
224.822336
 20
194.69786
 10
197.57038
 20
202.0
 10
197.5
 20
201.737339
 10
197.5
 20
202.0
 10
170.0
 20
202.0
 10
170.0
 20
199.0
 42
-0.414214
 10
171.0
 20
198.0
 42
-1.0
 10
169.0
 20
198.0
 10
131.0
 20
198.0
 42
-1.0
 10
129.0
 20
198.0
 42
-0.414214
  0
LWPOLYLINE
  5
34
102
{ACAD_REACTORS
330
33
102
}
100
AcDbEntity
  8
0
  6
CONTINUOUS
 62
     7
100
AcDbPolyline
 90
       20
 70
     1
 10
130.0
 20
50.0
 10
130.0
 20
47.0
 10
170.0
 20
47.0
 10
170.0
 20
50.0
 42
-0.414214
 10
169.0
 20
51.0
 42
-1.0
 10
171.0
 20
51.0
 10
197.5
 20
51.0
 10
197.5
 20
101.0
 10
171.0
 20
101.0
 42
-1.0
 10
169.0
 20
101.0
 42
-0.414214
 10
170.0
 20
102.0
 10
170.0
 20
105.0
 10
130.0
 20
105.0
 10
130.0
 20
102.0
 42
-0.414214
 10
131.0
 20
101.0
 42
-1.0
 10
129.0
 20
101.0
 10
102.5
 20
101.0
 10
102.5
 20
51.0
 10
129.0
 20
51.0
 42
-1.0
 10
131.0
 20
51.0
 42
-0.414214
  0
LWPOLYLINE
  5
35
102
{ACAD_REACTORS
330
33
102
}
100
AcDbEntity
  8
0
  6
CONTINUOUS
 62
     7
100
AcDbPolyline
 90
        8
 70
     1
 10
118.1
 20
61.0
 42
-0.414214
 10
115.1
 20
64.0
 10
115.1
 20
88.0
 42
-0.414214
 10
118.1
 20
91.0
 10
182.1
 20
91.0
 42
-0.414214
 10
185.1
 20
88.0
 10
185.1
 20
64.0
 42
-0.414214
 10
182.1
 20
61.0
  0
LINE
  5
37
102
{ACAD_REACTORS
330
33
102
}
100
AcDbEntity
  8
0
  6
DASHDOT
 62
     7
100
AcDbLine
 10
197.5
 20
76.0
 30
0.0
 11
102.5
 21
76.0
 31
0.0
  0
LWPOLYLINE
  5
38
102
{ACAD_REACTORS
330
33
102
}
100
AcDbEntity
  8
0
  6
CONTINUOUS
 62
     7
100
AcDbPolyline
 90
        2
 70
     1
 10
186.5
 20
96.0
 42
1.0
 10
183.5
 20
96.0
 42
1.0
  0
LWPOLYLINE
  5
39
102
{ACAD_REACTORS
330
33
102
}
100
AcDbEntity
  8
0
  6
CONTINUOUS
 62
     7
100
AcDbPolyline
 90
        2
 70
     1
 10
185.333333
 20
96.0
 42
1.0
 10
184.666667
 20
96.0
 42
1.0
  0
LWPOLYLINE
  5
3A
102
{ACAD_REACTORS
330
33
102
}
100
AcDbEntity
  8
0
  6
CONTINUOUS
 62
     7
100
AcDbPolyline
 90
        2
 70
     1
 10
186.5
 20
56.0
 42
1.0
 10
183.5
 20
56.0
 42
1.0
  0
LWPOLYLINE
  5
3B
102
{ACAD_REACTORS
330
33
102
}
100
AcDbEntity
  8
0
  6
CONTINUOUS
 62
     7
100
AcDbPolyline
 90
        2
 70
     1
 10
185.333333
 20
56.0
 42
1.0
 10
184.666667
 20
56.0
 42
1.0
  0
LWPOLYLINE
  5
3C
102
{ACAD_REACTORS
330
33
102
}
100
AcDbEntity
  8
0
  6
CONTINUOUS
 62
     7
100
AcDbPolyline
 90
        2
 70
     1
 10
116.5
 20
56.0
 42
1.0
 10
113.5
 20
56.0
 42
1.0
  0
LWPOLYLINE
  5
3D
102
{ACAD_REACTORS
330
33
102
}
100
AcDbEntity
  8
0
  6
CONTINUOUS
 62
     7
100
AcDbPolyline
 90
        2
 70
     1
 10
115.333333
 20
56.0
 42
1.0
 10
114.666667
 20
56.0
 42
1.0
  0
LWPOLYLINE
  5
3E
102
{ACAD_REACTORS
330
33
102
}
100
AcDbEntity
  8
0
  6
CONTINUOUS
 62
     7
100
AcDbPolyline
 90
        2
 70
     1
 10
116.5
 20
96.0
 42
1.0
 10
113.5
 20
96.0
 42
1.0
  0
LWPOLYLINE
  5
3F
102
{ACAD_REACTORS
330
33
102
}
100
AcDbEntity
  8
0
  6
CONTINUOUS
 62
     7
100
AcDbPolyline
 90
        2
 70
     1
 10
115.333333
 20
96.0
 42
1.0
 10
114.666667
 20
96.0
 42
1.0
  0
LWPOLYLINE
  5
40
102
{ACAD_REACTORS
330
33
102
}
100
AcDbEntity
  8
0
  6
CONTINUOUS
 62
     7
100
AcDbPolyline
 90
        2
 70
     1
 10
151.5
 20
96.0
 42
1.0
 10
148.5
 20
96.0
 42
1.0
  0
LWPOLYLINE
  5
41
102
{ACAD_REACTORS
330
33
102
}
100
AcDbEntity
  8
0
  6
CONTINUOUS
 62
     7
100
AcDbPolyline
 90
        2
 70
     1
 10
150.333333
 20
96.0
 42
1.0
 10
149.666667
 20
96.0
 42
1.0
  0
LWPOLYLINE
  5
42
102
{ACAD_REACTORS
330
33
102
}
100
AcDbEntity
  8
0
  6
CONTINUOUS
 62
     7
100
AcDbPolyline
 90
        2
 70
     1
 10
151.5
 20
56.0
 42
1.0
 10
148.5
 20
56.0
 42
1.0
  0
LWPOLYLINE
  5
43
102
{ACAD_REACTORS
330
33
102
}
100
AcDbEntity
  8
0
  6
CONTINUOUS
 62
     7
100
AcDbPolyline
 90
        2
 70
     1
 10
150.333333
 20
56.0
 42
1.0
 10
149.666667
 20
56.0
 42
1.0
  0
LWPOLYLINE
  5
45
102
{ACAD_REACTORS
330
44
102
}
100
AcDbEntity
  8
0
  6
CONTINUOUS
 62
     7
100
AcDbPolyline
 90
       28
 70
     1
 10
30.0
 20
49.0
 10
30.0
 20
46.0
 10
70.0
 20
46.0
 10
70.0
 20
49.0
 42
-0.414214
 10
69.0
 20
50.0
 42
-1.0
 10
71.0
 20
50.0
 10
97.5
 20
50.0
 10
97.5
 20
100.0
 10
71.0
 20
100.0
 42
-1.0
 10
69.0
 20
100.0
 42
-0.414214
 10
70.0
 20
101.0
 10
70.0
 20
104.0
 10
30.0
 20
104.0
 10
30.0
 20
101.0
 42
-0.414214
 10
31.0
 20
100.0
 42
-1.0
 10
29.0
 20
100.0
 10
2.5
 20
100.0
 10
2.5
 20
85.0
 10
5.5
 20
85.0
 42
-1.0
 10
7.5
 20
85.0
 42
-0.414214
 10
6.5
 20
84.0
 10
6.5
 20
66.0
 42
-0.414214
 10
7.5
 20
65.0
 42
-1.0
 10
5.5
 20
65.0
 10
2.5
 20
65.0
 10
2.5
 20
50.0
 10
29.0
 20
50.0
 42
-1.0
 10
31.0
 20
50.0
 42
-0.414214
  0
LWPOLYLINE
  5
46
102
{ACAD_REACTORS
330
44
102
}
100
AcDbEntity
  8
0
  6
CONTINUOUS
 62
     7
100
AcDbPolyline
 90
        8
 70
     1
 10
18.1
 20
60.0
 42
-0.414214
 10
15.1
 20
63.0
 10
15.1
 20
87.0
 42
-0.414214
 10
18.1
 20
90.0
 10
82.1
 20
90.0
 42
-0.414214
 10
85.1
 20
87.0
 10
85.1
 20
63.0
 42
-0.414214
 10
82.1
 20
60.0
  0
LINE
  5
47
102
{ACAD_REACTORS
330
44
102
}
100
AcDbEntity
  8
0
  6
DASHDOT
 62
     7
100
AcDbLine
 10
97.5
 20
75.0
 30
0.0
 11
2.5
 21
75.0
 31
0.0
  0
LWPOLYLINE
  5
48
102
{ACAD_REACTORS
330
44
102
}
100
AcDbEntity
  8
0
  6
CONTINUOUS
 62
     7
100
AcDbPolyline
 90
        2
 70
     1
 10
86.5
 20
95.0
 42
1.0
 10
83.5
 20
95.0
 42
1.0
  0
LWPOLYLINE
  5
49
102
{ACAD_REACTORS
330
44
102
}
100
AcDbEntity
  8
0
  6
CONTINUOUS
 62
     7
100
AcDbPolyline
 90
        2
 70
     1
 10
85.333333
 20
95.0
 42
1.0
 10
84.666667
 20
95.0
 42
1.0
  0
LWPOLYLINE
  5
4A
102
{ACAD_REACTORS
330
44
102
}
100
AcDbEntity
  8
0
  6
CONTINUOUS
 62
     7
100
AcDbPolyline
 90
        2
 70
     1
 10
86.5
 20
55.0
 42
1.0
 10
83.5
 20
55.0
 42
1.0
  0
LWPOLYLINE
  5
4B
102
{ACAD_REACTORS
330
44
102
}
100
AcDbEntity
  8
0
  6
CONTINUOUS
 62
     7
100
AcDbPolyline
 90
        2
 70
     1
 10
85.333333
 20
55.0
 42
1.0
 10
84.666667
 20
55.0
 42
1.0
  0
LWPOLYLINE
  5
4C
102
{ACAD_REACTORS
330
44
102
}
100
AcDbEntity
  8
0
  6
CONTINUOUS
 62
     7
100
AcDbPolyline
 90
        2
 70
     1
 10
16.5
 20
55.0
 42
1.0
 10
13.5
 20
55.0
 42
1.0
  0
LWPOLYLINE
  5
4D
102
{ACAD_REACTORS
330
44
102
}
100
AcDbEntity
  8
0
  6
CONTINUOUS
 62
     7
100
AcDbPolyline
 90
        2
 70
     1
 10
15.333333
 20
55.0
 42
1.0
 10
14.666667
 20
55.0
 42
1.0
  0
LWPOLYLINE
  5
4E
102
{ACAD_REACTORS
330
44
102
}
100
AcDbEntity
  8
0
  6
CONTINUOUS
 62
     7
100
AcDbPolyline
 90
        2
 70
     1
 10
16.5
 20
95.0
 42
1.0
 10
13.5
 20
95.0
 42
1.0
  0
LWPOLYLINE
  5
4F
102
{ACAD_REACTORS
330
44
102
}
100
AcDbEntity
  8
0
  6
CONTINUOUS
 62
     7
100
AcDbPolyline
 90
        2
 70
     1
 10
15.333333
 20
95.0
 42
1.0
 10
14.666667
 20
95.0
 42
1.0
  0
LWPOLYLINE
  5
50
102
{ACAD_REACTORS
330
44
102
}
100
AcDbEntity
  8
0
  6
CONTINUOUS
 62
     7
100
AcDbPolyline
 90
        2
 70
     1
 10
51.5
 20
95.0
 42
1.0
 10
48.5
 20
95.0
 42
1.0
  0
LWPOLYLINE
  5
51
102
{ACAD_REACTORS
330
44
102
}
100
AcDbEntity
  8
0
  6
CONTINUOUS
 62
     7
100
AcDbPolyline
 90
        2
 70
     1
 10
50.333333
 20
95.0
 42
1.0
 10
49.666667
 20
95.0
 42
1.0
  0
LWPOLYLINE
  5
52
102
{ACAD_REACTORS
330
44
102
}
100
AcDbEntity
  8
0
  6
CONTINUOUS
 62
     7
100
AcDbPolyline
 90
        2
 70
     1
 10
51.5
 20
55.0
 42
1.0
 10
48.5
 20
55.0
 42
1.0
  0
LWPOLYLINE
  5
53
102
{ACAD_REACTORS
330
44
102
}
100
AcDbEntity
  8
0
  6
CONTINUOUS
 62
     7
100
AcDbPolyline
 90
        2
 70
     1
 10
50.333333
 20
55.0
 42
1.0
 10
49.666667
 20
55.0
 42
1.0
  0
LWPOLYLINE
  5
55
102
{ACAD_REACTORS
330
54
102
}
100
AcDbEntity
  8
0
  6
CONTINUOUS
 62
     7
100
AcDbPolyline
 90
       28
 70
     1
 10
270.0
 20
49.0
 10
270.0
 20
46.0
 10
230.0
 20
46.0
 10
230.0
 20
49.0
 42
0.414214
 10
231.0
 20
50.0
 42
1.0
 10
229.0
 20
50.0
 10
202.5
 20
50.0
 10
202.5
 20
100.0
 10
229.0
 20
100.0
 42
1.0
 10
231.0
 20
100.0
 42
0.414214
 10
230.0
 20
101.0
 10
230.0
 20
104.0
 10
270.0
 20
104.0
 10
270.0
 20
101.0
 42
0.414214
 10
269.0
 20
100.0
 42
1.0
 10
271.0
 20
100.0
 10
297.5
 20
100.0
 10
297.5
 20
85.0
 10
294.5
 20
85.0
 42
1.0
 10
292.5
 20
85.0
 42
0.414214
 10
293.5
 20
84.0
 10
293.5
 20
66.0
 42
0.414214
 10
292.5
 20
65.0
 42
1.0
 10
294.5
 20
65.0
 10
297.5
 20
65.0
 10
297.5
 20
50.0
 10
271.0
 20
50.0
 42
1.0
 10
269.0
 20
50.0
 42
0.414214
  0
LWPOLYLINE
  5
56
102
{ACAD_REACTORS
330
54
102
}
100
AcDbEntity
  8
0
  6
CONTINUOUS
 62
     7
100
AcDbPolyline
 90
        8
 70
     1
 10
281.9
 20
60.0
 42
0.414214
 10
284.9
 20
63.0
 10
284.9
 20
87.0
 42
0.414214
 10
281.9
 20
90.0
 10
217.9
 20
90.0
 42
0.414214
 10
214.9
 20
87.0
 10
214.9
 20
63.0
 42
0.414214
 10
217.9
 20
60.0
  0
LINE
  5
57
102
{ACAD_REACTORS
330
54
102
}
100
AcDbEntity
  8
0
  6
DASHDOT
 62
     7
100
AcDbLine
 10
202.5
 20
75.0
 30
0.0
 11
297.5
 21
75.0
 31
0.0
  0
LWPOLYLINE
  5
58
102
{ACAD_REACTORS
330
54
102
}
100
AcDbEntity
  8
0
  6
CONTINUOUS
 62
     7
100
AcDbPolyline
 90
        2
 70
     1
 10
213.5
 20
95.0
 42
-1.0
 10
216.5
 20
95.0
 42
-1.0
  0
LWPOLYLINE
  5
59
102
{ACAD_REACTORS
330
54
102
}
100
AcDbEntity
  8
0
  6
CONTINUOUS
 62
     7
100
AcDbPolyline
 90
        2
 70
     1
 10
214.666667
 20
95.0
 42
-1.0
 10
215.333333
 20
95.0
 42
-1.0
  0
LWPOLYLINE
  5
5A
102
{ACAD_REACTORS
330
54
102
}
100
AcDbEntity
  8
0
  6
CONTINUOUS
 62
     7
100
AcDbPolyline
 90
        2
 70
     1
 10
213.5
 20
55.0
 42
-1.0
 10
216.5
 20
55.0
 42
-1.0
  0
LWPOLYLINE
  5
5B
102
{ACAD_REACTORS
330
54
102
}
100
AcDbEntity
  8
0
  6
CONTINUOUS
 62
     7
100
AcDbPolyline
 90
        2
 70
     1
 10
214.666667
 20
55.0
 42
-1.0
 10
215.333333
 20
55.0
 42
-1.0
  0
LWPOLYLINE
  5
5C
102
{ACAD_REACTORS
330
54
102
}
100
AcDbEntity
  8
0
  6
CONTINUOUS
 62
     7
100
AcDbPolyline
 90
        2
 70
     1
 10
283.5
 20
55.0
 42
-1.0
 10
286.5
 20
55.0
 42
-1.0
  0
LWPOLYLINE
  5
5D
102
{ACAD_REACTORS
330
54
102
}
100
AcDbEntity
  8
0
  6
CONTINUOUS
 62
     7
100
AcDbPolyline
 90
        2
 70
     1
 10
284.666667
 20
55.0
 42
-1.0
 10
285.333333
 20
55.0
 42
-1.0
  0
LWPOLYLINE
  5
5E
102
{ACAD_REACTORS
330
54
102
}
100
AcDbEntity
  8
0
  6
CONTINUOUS
 62
     7
100
AcDbPolyline
 90
        2
 70
     1
 10
283.5
 20
95.0
 42
-1.0
 10
286.5
 20
95.0
 42
-1.0
  0
LWPOLYLINE
  5
5F
102
{ACAD_REACTORS
330
54
102
}
100
AcDbEntity
  8
0
  6
CONTINUOUS
 62
     7
100
AcDbPolyline
 90
        2
 70
     1
 10
284.666667
 20
95.0
 42
-1.0
 10
285.333333
 20
95.0
 42
-1.0
  0
LWPOLYLINE
  5
60
102
{ACAD_REACTORS
330
54
102
}
100
AcDbEntity
  8
0
  6
CONTINUOUS
 62
     7
100
AcDbPolyline
 90
        2
 70
     1
 10
248.5
 20
95.0
 42
-1.0
 10
251.5
 20
95.0
 42
-1.0
  0
LWPOLYLINE
  5
61
102
{ACAD_REACTORS
330
54
102
}
100
AcDbEntity
  8
0
  6
CONTINUOUS
 62
     7
100
AcDbPolyline
 90
        2
 70
     1
 10
249.666667
 20
95.0
 42
-1.0
 10
250.333333
 20
95.0
 42
-1.0
  0
LWPOLYLINE
  5
62
102
{ACAD_REACTORS
330
54
102
}
100
AcDbEntity
  8
0
  6
CONTINUOUS
 62
     7
100
AcDbPolyline
 90
        2
 70
     1
 10
248.5
 20
55.0
 42
-1.0
 10
251.5
 20
55.0
 42
-1.0
  0
LWPOLYLINE
  5
63
102
{ACAD_REACTORS
330
54
102
}
100
AcDbEntity
  8
0
  6
CONTINUOUS
 62
     7
100
AcDbPolyline
 90
        2
 70
     1
 10
249.666667
 20
55.0
 42
-1.0
 10
250.333333
 20
55.0
 42
-1.0
  0
ENDSEC
  0
SECTION
  2
OBJECTS
  0
DICTIONARY
  5
C
100
AcDbDictionary
  3
ACAD_GROUP
350
D
  3
ACAD_MLINESTYLE
350
1B
  0
DICTIONARY
  5
D
102
{ACAD_REACTORS
330
C
102
}
100
AcDbDictionary
  3
VISIOGROUP_0
350
33
  3
VISIOGROUP_1
350
44
  3
VISIOGROUP_2
350
54
  0
DICTIONARY
  5
1B
102
{ACAD_REACTORS
330
C
102
}
100
AcDbDictionary
  3
STANDARD
350
1C
  0
MLINESTYLE
  5
1C
102
{ACAD_REACTORS
330
1B
102
}
100
AcDbMlineStyle
  2
STANDARD
 70
     0
  3

 62
   256
 51
90.0
 52
90.0
 71
     2
 49
0.5
 62
   256
  6
BYLAYER
 49
-0.5
 62
   256
  6
BYLAYER
  0
GROUP
  5
33
102
{ACAD_REACTORS
330
D
102
}
100
AcDbGroup
300
Group created by UlrichC.
 70
     0
 71
     1
340
34
340
35
340
37
340
38
340
39
340
3A
340
3B
340
3C
340
3D
340
3E
340
3F
340
40
340
41
340
42
340
43
  0
GROUP
  5
44
102
{ACAD_REACTORS
330
D
102
}
100
AcDbGroup
300
Group created by UlrichC.
 70
     0
 71
     1
340
45
340
46
340
47
340
48
340
49
340
4A
340
4B
340
4C
340
4D
340
4E
340
4F
340
50
340
51
340
52
340
53
  0
GROUP
  5
54
102
{ACAD_REACTORS
330
D
102
}
100
AcDbGroup
300
Group created by UlrichC.
 70
     0
 71
     1
340
55
340
56
340
57
340
58
340
59
340
5A
340
5B
340
5C
340
5D
340
5E
340
5F
340
60
340
61
340
62
340
63
  0
ENDSEC
  0
EOF

