  0
SECTION
  2
HEADER
  9
$ACADVER
  1
AC1014
  9
$ACADMAINTVER
 70
     0
  9
$DWGCODEPAGE
  3
ANSI_1252
  9
$INSBASE
 10
0.0
 20
0.0
 30
0.0
  9
$EXTMIN
 10
0.0
 20
0.0
 30
0.0
  9
$EXTMAX
 10
297.0
 20
210.0
 30
0.0
  9
$LIMMIN
 10
0.0
 20
0.0
  9
$LIMMAX
 10
12.0
 20
9.0
  9
$ORTHOMODE
 70
     0
  9
$REGENMODE
 70
     1
  9
$FILLMODE
 70
     0
  9
$QTEXTMODE
 70
     0
  9
$MIRRTEXT
 70
     1
  9
$DRAGMODE
 70
     2
  9
$LTSCALE
 40
2.97
  9
$OSMODE
 70
     0
  9
$ATTMODE
 70
     1
  9
$TEXTSIZE
 40
0.2
  9
$TRACEWID
 40
0.05
  9
$TEXTSTYLE
  7
STANDARD
  9
$CLAYER
  8
0
  9
$CELTYPE
  6
BYLAYER
  9
$CECOLOR
 62
   256
  9
$CELTSCALE
 40
1.0
  9
$DELOBJ
 70
     1
  9
$DISPSILH
 70
     0
  9
$DIMSCALE
 40
1.0
  9
$DIMASZ
 40
0.18
  9
$DIMEXO
 40
0.0625
  9
$DIMDLI
 40
0.38
  9
$DIMRND
 40
0.0
  9
$DIMDLE
 40
0.0
  9
$DIMEXE
 40
0.18
  9
$DIMTP
 40
0.0
  9
$DIMTM
 40
0.0
  9
$DIMTXT
 40
0.18
  9
$DIMCEN
 40
0.09
  9
$DIMTSZ
 40
0.0
  9
$DIMTOL
 70
     0
  9
$DIMLIM
 70
     0
  9
$DIMTIH
 70
     0
  9
$DIMTOH
 70
     0
  9
$DIMSE1
 70
     0
  9
$DIMSE2
 70
     0
  9
$DIMTAD
 70
     1
  9
$DIMZIN
 70
     0
  9
$DIMBLK
  1

  9
$DIMASO
 70
     1
  9
$DIMSHO
 70
     1
  9
$DIMPOST
  1

  9
$DIMAPOST
  1

  9
$DIMALT
 70
     0
  9
$DIMALTD
 70
     2
  9
$DIMALTF
 40
25.4
  9
$DIMLFAC
 40
1.0
  9
$DIMTOFL
 70
     0
  9
$DIMTVP
 40
0.0
  9
$DIMTIX
 70
     0
  9
$DIMSOXD
 70
     0
  9
$DIMSAH
 70
     0
  9
$DIMBLK1
  1

  9
$DIMBLK2
  1

  9
$DIMSTYLE
  2
STANDARD
  9
$DIMCLRD
 70
     0
  9
$DIMCLRE
 70
     0
  9
$DIMCLRT
 70
     0
  9
$DIMTFAC
 40
1.0
  9
$DIMGAP
 40
0.09
  9
$DIMJUST
 70
     0
  9
$DIMSD1
 70
     0
  9
$DIMSD2
 70
     0
  9
$DIMTOLJ
 70
     1
  9
$DIMTZIN
 70
     0
  9
$DIMALTZ
 70
     0
  9
$DIMALTTZ
 70
     0
  9
$DIMFIT
 70
     3
  9
$DIMUPT
 70
     0
  9
$DIMUNIT
 70
     2
  9
$DIMDEC
 70
     2
  9
$DIMTDEC
 70
     4
  9
$DIMALTU
 70
     2
  9
$DIMALTTD
 70
     2
  9
$DIMTXSTY
  7
STANDARD
  9
$DIMAUNIT
 70
     0
  9
$LUNITS
 70
     2
  9
$LUPREC
 70
     4
  9
$SKETCHINC
 40
0.1
  9
$FILLETRAD
 40
0.5
  9
$AUNITS
 70
     0
  9
$AUPREC
 70
     0
  9
$MENU
  1
.
  9
$ELEVATION
 40
0.0
  9
$PELEVATION
 40
0.0
  9
$THICKNESS
 40
0.0
  9
$LIMCHECK
 70
     0
  9
$BLIPMODE
 70
     0
  9
$CHAMFERA
 40
0.5
  9
$CHAMFERB
 40
0.5
  9
$CHAMFERC
 40
1.0
  9
$CHAMFERD
 40
0.0
  9
$SKPOLY
 70
     0
  9
$TDCREATE
 40
2450772.666465926
  9
$TDUPDATE
 40
2455973.899837951
  9
$TDINDWG
 40
0.0011680556
  9
$TDUSRTIMER
 40
0.0000115625
  9
$USRTIMER
 70
     1
  9
$ANGBASE
 50
0.0
  9
$ANGDIR
 70
     0
  9
$PDMODE
 70
     0
  9
$PDSIZE
 40
0.0
  9
$PLINEWID
 40
0.0
  9
$COORDS
 70
     1
  9
$SPLFRAME
 70
     0
  9
$SPLINETYPE
 70
     6
  9
$SPLINESEGS
 70
     8
  9
$ATTDIA
 70
     0
  9
$ATTREQ
 70
     1
  9
$HANDLING
 70
     1
  9
$HANDSEED
  5
654
  9
$SURFTAB1
 70
     6
  9
$SURFTAB2
 70
     6
  9
$SURFTYPE
 70
     6
  9
$SURFU
 70
     6
  9
$SURFV
 70
     6
  9
$UCSNAME
  2

  9
$UCSORG
 10
0.0
 20
0.0
 30
0.0
  9
$UCSXDIR
 10
1.0
 20
0.0
 30
0.0
  9
$UCSYDIR
 10
0.0
 20
1.0
 30
0.0
  9
$PUCSNAME
  2

  9
$PUCSORG
 10
0.0
 20
0.0
 30
0.0
  9
$PUCSXDIR
 10
1.0
 20
0.0
 30
0.0
  9
$PUCSYDIR
 10
0.0
 20
1.0
 30
0.0
  9
$USERI1
 70
     0
  9
$USERI2
 70
     0
  9
$USERI3
 70
     0
  9
$USERI4
 70
     0
  9
$USERI5
 70
     0
  9
$USERR1
 40
0.0
  9
$USERR2
 40
0.0
  9
$USERR3
 40
0.0
  9
$USERR4
 40
0.0
  9
$USERR5
 40
0.0
  9
$WORLDVIEW
 70
     1
  9
$SHADEDGE
 70
     3
  9
$SHADEDIF
 70
    70
  9
$TILEMODE
 70
     1
  9
$MAXACTVP
 70
    48
  9
$PINSBASE
 10
0.0
 20
0.0
 30
0.0
  9
$PLIMCHECK
 70
     0
  9
$PEXTMIN
 10
0.0
 20
0.0
 30
0.0
  9
$PEXTMAX
 10
0.0
 20
0.0
 30
0.0
  9
$PLIMMIN
 10
0.0
 20
0.0
  9
$PLIMMAX
 10
12.0
 20
9.0
  9
$UNITMODE
 70
     0
  9
$VISRETAIN
 70
     1
  9
$PLINEGEN
 70
     0
  9
$PSLTSCALE
 70
     1
  9
$TREEDEPTH
 70
  3020
  9
$PICKSTYLE
 70
     1
  9
$CMLSTYLE
  2
STANDARD
  9
$CMLJUST
 70
     0
  9
$CMLSCALE
 40
1.0
  9
$PROXYGRAPHICS
 70
     1
  9
$MEASUREMENT
 70
     0
  0
ENDSEC
  0
SECTION
  2
CLASSES
  0
CLASS
  1
LWPOLYLINE
  2
AcDbPolyline
  3
"AutoCAD"
 90
        0
280
     0
281
     1
  0
CLASS
  1
IMAGE
  2
AcDbRasterImage
  3
ISM
 90
      127
280
     0
281
     1
  0
CLASS
  1
OLE2FRAME
  2
AcDbOle2Frame
  3
""
 90
        0
280
     0
281
     1
  0
CLASS
  1
HATCH
  2
AcDbHatch
  3
"ACAD_SEDONA"
 90
        0
280
     0
281
     1
  0
CLASS
  1
DICTIONARYVAR
  2
AcDbDictionaryVar
  3
"AutoCAD"
 90
        0
280
     0
281
     0
  0
CLASS
  1
RASTERVARIABLES
  2
AcDbRasterVariables
  3
ISM
 90
        0
280
     0
281
     0
  0
CLASS
  1
IMAGEDEF
  2
AcDbRasterImageDef
  3
ISM
 90
        0
280
     0
281
     0
  0
CLASS
  1
IMAGEDEF_REACTOR
  2
AcDbRasterImageDefReactor
  3
ISM
 90
        1
280
     0
281
     0
  0
CLASS
  1
IDBUFFER
  2
AcDbIdBuffer
  3
"Acad"
 90
        0
280
     0
281
     0
  0
CLASS
  1
SPATIAL_FILTER
  2
AcDbSpatialFilter
  3
"Acad"
 90
        0
280
     0
281
     0
  0
CLASS
  1
XRECORD
  2
AcDbXrecord
  3
"<Built In>"
 90
        0
280
     0
281
     0
  0
CLASS
  1
SORTENTSTABLE
  2
AcDbSortentsTable
  3
"AutoCAD"
 90
        0
280
     0
281
     0
  0
CLASS
  1
LAYER_INDEX
  2
AcDbLayerIndex
  3
"Acad"
 90
        0
280
     0
281
     0
  0
CLASS
  1
SPATIAL_INDEX
  2
AcDbSpatialIndex
  3
"Acad"
 90
        0
280
     0
281
     0
  0
CLASS
  1
OBJECT_PTR
  2
CAseDLPNTableRecord
  3
"ASE-LPNTableRecord"
 90
        1
280
     0
281
     0
  0
CLASS
  1
LAYOUT
  2
AcDbLayout
  3
"AutoCAD 2000"
 90
        1
280
     0
281
     0
  0
CLASS
  1
PLOTSETTINGS
  2
AcDbPlotSettings
  3
"AutoCAD 2000"
 90
        1
280
     0
281
     0
  0
CLASS
  1
ACDBDICTIONARYWDFLT
  2
AcDbDictionaryWithDefault
  3
"AutoCAD 2000"
 90
        1
280
     0
281
     0
  0
CLASS
  1
ACDBPLACEHOLDER
  2
AcDbPlaceHolder
  3
"AutoCAD 2000"
 90
        1
280
     0
281
     0
  0
CLASS
  1
VBA_PROJECT
  2
AcDbVbaProject
  3
"acadvba"
 90
        1
280
     0
281
     0
  0
CLASS
  1
WIPEOUT
  2
AcDbWipeout
  3
WipeOut|AutoCAD Express Tool|expresstools@autodesk.com
 90
      127
280
     0
281
     1
  0
CLASS
  1
WIPEOUTVARIABLES
  2
AcDbWipeoutVariables
  3
WipeOut|AutoCAD Express Tool|expresstools@autodesk.com
 90
        0
280
     0
281
     0
  0
CLASS
  1
RTEXT
  2
RText
  3
RText|AutoCAD Express Tool|expresstools@autodesk.com
 90
        0
280
     0
281
     1
  0
CLASS
  1
ARCALIGNEDTEXT
  2
AcDbArcAlignedText
  3
ATEXT|AutoCAD Express Tool|expresstools@autodesk.com
 90
        0
280
     0
281
     1
  0
ENDSEC
  0
SECTION
  2
TABLES
  0
TABLE
  2
VPORT
  5
8
100
AcDbSymbolTable
 70
     1
  0
VPORT
  5
25
100
AcDbSymbolTableRecord
100
AcDbViewportTableRecord
  2
*ACTIVE
 70
     0
 10
0.0
 20
0.0
 11
1.0
 21
1.0
 12
148.5
 22
105.0
 13
0.0
 23
0.0
 14
0.5
 24
0.5
 15
0.5
 25
0.5
 16
0.0
 26
0.0
 36
1.0
 17
0.0
 27
0.0
 37
0.0
 40
210.0
 41
1.414286
 42
50.0
 43
0.0
 44
0.0
 50
0.0
 51
0.0
 71
     0
 72
   100
 73
     1
 74
     1
 75
     0
 76
     0
 77
     0
 78
     0
  0
ENDTAB
  0
TABLE
  2
LTYPE
  5
5
100
AcDbSymbolTable
 70
     8
  0
LTYPE
  5
12
100
AcDbSymbolTableRecord
100
AcDbLinetypeTableRecord
  2
BYBLOCK
 70
    64
  3

 72
    65
 73
     0
 40
0.0
  0
LTYPE
  5
13
100
AcDbSymbolTableRecord
100
AcDbLinetypeTableRecord
  2
BYLAYER
 70
    64
  3

 72
    65
 73
     0
 40
0.0
  0
LTYPE
  5
14
100
AcDbSymbolTableRecord
100
AcDbLinetypeTableRecord
  2
CONTINUOUS
 70
     0
  3
Solid line
 72
    65
 73
     0
 40
0.0
  0
LTYPE
  5
6F
100
AcDbSymbolTableRecord
100
AcDbLinetypeTableRecord
  2
DASHEDX2
 70
     0
  3
DASHEDX2
 72
    65
 73
     2
 40
1.25
 49
0.75
 74
     0
 49
-0.5
 74
     0
  0
LTYPE
  5
20C
100
AcDbSymbolTableRecord
100
AcDbLinetypeTableRecord
  2
DOT
 70
     0
  3
DOT
 72
    65
 73
     2
 40
0.25
 49
0.0
 74
     0
 49
-0.25
 74
     0
  0
LTYPE
  5
262
100
AcDbSymbolTableRecord
100
AcDbLinetypeTableRecord
  2
DASHED
 70
     0
  3
DASHED
 72
    65
 73
     2
 40
0.75
 49
0.5
 74
     0
 49
-0.25
 74
     0
  0
LTYPE
  5
412
100
AcDbSymbolTableRecord
100
AcDbLinetypeTableRecord
  2
DASHED2
 70
     0
  3
DASHED2
 72
    65
 73
     2
 40
0.375
 49
0.25
 74
     0
 49
-0.125
 74
     0
  0
LTYPE
  5
5F7
100
AcDbSymbolTableRecord
100
AcDbLinetypeTableRecord
  2
DASHDOT
 70
     0
  3
DASHDOT
 72
    65
 73
     4
 40
1.0
 49
0.5
 74
     0
 49
-0.25
 74
     0
 49
0.0
 74
     0
 49
-0.25
 74
     0
  0
ENDTAB
  0
TABLE
  2
LAYER
  5
2
100
AcDbSymbolTable
 70
     1
  0
LAYER
  5
E
100
AcDbSymbolTableRecord
100
AcDbLayerTableRecord
  2
0
 70
     0
 62
     7
  6
CONTINUOUS
  0
ENDTAB
  0
TABLE
  2
STYLE
  5
3
100
AcDbSymbolTable
 70
     1
  0
STYLE
  5
F
100
AcDbSymbolTableRecord
100
AcDbTextStyleTableRecord
  2
STANDARD
 70
     0
 40
0.0
 41
1.0
 50
0.0
 71
     0
 42
0.2
  3
txt.shx
  4

  0
ENDTAB
  0
TABLE
  2
VIEW
  5
6
100
AcDbSymbolTable
 70
     0
  0
ENDTAB
  0
TABLE
  2
UCS
  5
7
100
AcDbSymbolTable
 70
     0
  0
ENDTAB
  0
TABLE
  2
APPID
  5
9
100
AcDbSymbolTable
 70
     1
  0
APPID
  5
10
100
AcDbSymbolTableRecord
100
AcDbRegAppTableRecord
  2
ACAD
 70
     0
  0
ENDTAB
  0
TABLE
  2
DIMSTYLE
  5
A
100
AcDbSymbolTable
 70
     1
  0
DIMSTYLE
105
1D
100
AcDbSymbolTableRecord
100
AcDbDimStyleTableRecord
  2
STANDARD
 70
     0
  3

  4

  5

  6

  7

 40
1.0
 41
0.18
 42
0.0625
 43
0.38
 44
0.18
 45
0.0
 46
0.0
 47
0.0
 48
0.0
 71
     0
 72
     0
 73
     1
 74
     1
 75
     0
 76
     0
 77
     0
 78
     0
140
0.18
141
0.09
142
0.0
143
25.4
144
1.0
145
0.0
146
1.0
147
0.09
170
     0
171
     2
172
     0
173
     0
174
     0
175
     0
176
     0
177
     0
178
     0
270
     2
271
     4
272
     4
273
     2
274
     2
275
     0
280
     0
281
     0
282
     0
283
     1
284
     0
285
     0
286
     0
287
     3
288
     0
340
F
  0
ENDTAB
  0
TABLE
  2
BLOCK_RECORD
  5
1
100
AcDbSymbolTable
 70
   174
  0
BLOCK_RECORD
  5
18
100
AcDbSymbolTableRecord
100
AcDbBlockTableRecord
  2
*MODEL_SPACE
  0
BLOCK_RECORD
  5
15
100
AcDbSymbolTableRecord
100
AcDbBlockTableRecord
  2
*PAPER_SPACE
  0
BLOCK_RECORD
  5
75
100
AcDbSymbolTableRecord
100
AcDbBlockTableRecord
  2
KREIS
  0
BLOCK_RECORD
  5
79
100
AcDbSymbolTableRecord
100
AcDbBlockTableRecord
  2
FELD
  0
BLOCK_RECORD
  5
7D
100
AcDbSymbolTableRecord
100
AcDbBlockTableRecord
  2
F\U+00FCNFECK
  0
BLOCK_RECORD
  5
81
100
AcDbSymbolTableRecord
100
AcDbBlockTableRecord
  2
STERN_7
  0
BLOCK_RECORD
  5
85
100
AcDbSymbolTableRecord
100
AcDbBlockTableRecord
  2
SECHSECK
  0
BLOCK_RECORD
  5
89
100
AcDbSymbolTableRecord
100
AcDbBlockTableRecord
  2
CIRCLE_8
  0
BLOCK_RECORD
  5
8D
100
AcDbSymbolTableRecord
100
AcDbBlockTableRecord
  2
VERBINDER_LINIE_KURVE
  0
BLOCK_RECORD
  5
91
100
AcDbSymbolTableRecord
100
AcDbBlockTableRecord
  2
KONZENTRISCHES_ZENTRUM
  0
BLOCK_RECORD
  5
95
100
AcDbSymbolTableRecord
100
AcDbBlockTableRecord
  2
AUTO-H\U+00F6HE
  0
BLOCK_RECORD
  5
9A
100
AcDbSymbolTableRecord
100
AcDbBlockTableRecord
  2
MANUELLE_VERARBEITUNG
  0
BLOCK_RECORD
  5
9E
100
AcDbSymbolTableRecord
100
AcDbBlockTableRecord
  2
REGEN
  0
BLOCK_RECORD
  5
D6
100
AcDbSymbolTableRecord
100
AcDbBlockTableRecord
  2
SONNE
  0
BLOCK_RECORD
  5
F9
100
AcDbSymbolTableRecord
100
AcDbBlockTableRecord
  2
PARK
  0
BLOCK_RECORD
  5
105
100
AcDbSymbolTableRecord
100
AcDbBlockTableRecord
  2
QUADR__FELD
  0
BLOCK_RECORD
  5
109
100
AcDbSymbolTableRecord
100
AcDbBlockTableRecord
  2
RADIOAKTIV
  0
BLOCK_RECORD
  5
113
100
AcDbSymbolTableRecord
100
AcDbBlockTableRecord
  2
CIRCLE_18
  0
BLOCK_RECORD
  5
119
100
AcDbSymbolTableRecord
100
AcDbBlockTableRecord
  2
BESCHRIFTUNG
  0
BLOCK_RECORD
  5
11E
100
AcDbSymbolTableRecord
100
AcDbBlockTableRecord
  2
GEBOGENER_PFEIL
  0
BLOCK_RECORD
  5
125
100
AcDbSymbolTableRecord
100
AcDbBlockTableRecord
  2
SECHSKANT_SCHRAUBENKOPF
  0
BLOCK_RECORD
  5
12A
100
AcDbSymbolTableRecord
100
AcDbBlockTableRecord
  2
GEWINDE1
  0
BLOCK_RECORD
  5
12E
100
AcDbSymbolTableRecord
100
AcDbBlockTableRecord
  2
FEDER
  0
BLOCK_RECORD
  5
137
100
AcDbSymbolTableRecord
100
AcDbBlockTableRecord
  2
KONZENTRISCHER_LAYER_1
  0
BLOCK_RECORD
  5
13C
100
AcDbSymbolTableRecord
100
AcDbBlockTableRecord
  2
AKTENORDNER
  0
BLOCK_RECORD
  5
140
100
AcDbSymbolTableRecord
100
AcDbBlockTableRecord
  2
KONZENTRISCHER_LAYER_3
  0
BLOCK_RECORD
  5
145
100
AcDbSymbolTableRecord
100
AcDbBlockTableRecord
  2
KONZENTRISCHER_LAYER_2
  0
BLOCK_RECORD
  5
14A
100
AcDbSymbolTableRecord
100
AcDbBlockTableRecord
  2
CIRCLE_28
  0
BLOCK_RECORD
  5
153
100
AcDbSymbolTableRecord
100
AcDbBlockTableRecord
  2
TEIL-LAYER_3
  0
BLOCK_RECORD
  5
157
100
AcDbSymbolTableRecord
100
AcDbBlockTableRecord
  2
KRUMMER_PFEIL
  0
BLOCK_RECORD
  5
15B
100
AcDbSymbolTableRecord
100
AcDbBlockTableRecord
  2
2D-DOPPEL
  0
BLOCK_RECORD
  5
15F
100
AcDbSymbolTableRecord
100
AcDbBlockTableRecord
  2
TEIL-LAYER_4
  0
BLOCK_RECORD
  5
163
100
AcDbSymbolTableRecord
100
AcDbBlockTableRecord
  2
1D-PFEIL
  0
BLOCK_RECORD
  5
16D
100
AcDbSymbolTableRecord
100
AcDbBlockTableRecord
  2
RAUTE
  0
BLOCK_RECORD
  5
171
100
AcDbSymbolTableRecord
100
AcDbBlockTableRecord
  2
ORGANISATION
  0
BLOCK_RECORD
  5
182
100
AcDbSymbolTableRecord
100
AcDbBlockTableRecord
  2
AFP-SERVER
  0
BLOCK_RECORD
  5
1AB
100
AcDbSymbolTableRecord
100
AcDbBlockTableRecord
  2
COMPUTER
  0
BLOCK_RECORD
  5
1C6
100
AcDbSymbolTableRecord
100
AcDbBlockTableRecord
  2
WWW-SERVER
  0
BLOCK_RECORD
  5
1C9
100
AcDbSymbolTableRecord
100
AcDbBlockTableRecord
  2
SMARTCARD__SICH__ID-KTE
  0
BLOCK_RECORD
  5
1CC
100
AcDbSymbolTableRecord
100
AcDbBlockTableRecord
  2
ORGANISATIONS-_EINHEIT
  0
BLOCK_RECORD
  5
1DF
100
AcDbSymbolTableRecord
100
AcDbBlockTableRecord
  2
UNBEKANNT
  0
BLOCK_RECORD
  5
1EC
100
AcDbSymbolTableRecord
100
AcDbBlockTableRecord
  2
ALLGEMEINES_OBJEKT
  0
BLOCK_RECORD
  5
1FA
100
AcDbSymbolTableRecord
100
AcDbBlockTableRecord
  2
VERZEICHNIS-_VERBINDER
  0
BLOCK_RECORD
  5
1FE
100
AcDbSymbolTableRecord
100
AcDbBlockTableRecord
  2
WWW-_CLUSTER
  0
BLOCK_RECORD
  5
201
100
AcDbSymbolTableRecord
100
AcDbBlockTableRecord
  2
DF\U+00DC-_VERBINDUNG
  0
BLOCK_RECORD
  5
206
100
AcDbSymbolTableRecord
100
AcDbBlockTableRecord
  2
PEER-TO-PEER
  0
BLOCK_RECORD
  5
210
100
AcDbSymbolTableRecord
100
AcDbBlockTableRecord
  2
MASTER_47
  0
BLOCK_RECORD
  5
218
100
AcDbSymbolTableRecord
100
AcDbBlockTableRecord
  2
MASTER_48
  0
BLOCK_RECORD
  5
21D
100
AcDbSymbolTableRecord
100
AcDbBlockTableRecord
  2
GEWINDELOCH_1
  0
BLOCK_RECORD
  5
222
100
AcDbSymbolTableRecord
100
AcDbBlockTableRecord
  2
MASTER_50
  0
BLOCK_RECORD
  5
22A
100
AcDbSymbolTableRecord
100
AcDbBlockTableRecord
  2
MASTER_51
  0
BLOCK_RECORD
  5
230
100
AcDbSymbolTableRecord
100
AcDbBlockTableRecord
  2
MASTER_52
  0
BLOCK_RECORD
  5
236
100
AcDbSymbolTableRecord
100
AcDbBlockTableRecord
  2
MASTER_53
  0
BLOCK_RECORD
  5
23E
100
AcDbSymbolTableRecord
100
AcDbBlockTableRecord
  2
MASTER_54
  0
BLOCK_RECORD
  5
244
100
AcDbSymbolTableRecord
100
AcDbBlockTableRecord
  2
CIRCLE_45
  0
BLOCK_RECORD
  5
248
100
AcDbSymbolTableRecord
100
AcDbBlockTableRecord
  2
RECTANGLE_67
  0
BLOCK_RECORD
  5
24C
100
AcDbSymbolTableRecord
100
AcDbBlockTableRecord
  2
RECTANGLE_68
  0
BLOCK_RECORD
  5
250
100
AcDbSymbolTableRecord
100
AcDbBlockTableRecord
  2
CIRCLE_65
  0
BLOCK_RECORD
  5
254
100
AcDbSymbolTableRecord
100
AcDbBlockTableRecord
  2
SQUARE_69
  0
BLOCK_RECORD
  5
258
100
AcDbSymbolTableRecord
100
AcDbBlockTableRecord
  2
MASTER_60
  0
BLOCK_RECORD
  5
260
100
AcDbSymbolTableRecord
100
AcDbBlockTableRecord
  2
MASTER_61
  0
BLOCK_RECORD
  5
266
100
AcDbSymbolTableRecord
100
AcDbBlockTableRecord
  2
CIRCLE_77
  0
BLOCK_RECORD
  5
26A
100
AcDbSymbolTableRecord
100
AcDbBlockTableRecord
  2
RECTANGLE_79
  0
BLOCK_RECORD
  5
26E
100
AcDbSymbolTableRecord
100
AcDbBlockTableRecord
  2
MASTER_64
  0
BLOCK_RECORD
  5
274
100
AcDbSymbolTableRecord
100
AcDbBlockTableRecord
  2
MASTER_65
  0
BLOCK_RECORD
  5
27C
100
AcDbSymbolTableRecord
100
AcDbBlockTableRecord
  2
MASTER_66
  0
BLOCK_RECORD
  5
281
100
AcDbSymbolTableRecord
100
AcDbBlockTableRecord
  2
RECHTECK
  0
BLOCK_RECORD
  5
285
100
AcDbSymbolTableRecord
100
AcDbBlockTableRecord
  2
CIRCLE_70
  0
BLOCK_RECORD
  5
289
100
AcDbSymbolTableRecord
100
AcDbBlockTableRecord
  2
CIRCLE_62
  0
BLOCK_RECORD
  5
28D
100
AcDbSymbolTableRecord
100
AcDbBlockTableRecord
  2
MASTER_70
  0
BLOCK_RECORD
  5
295
100
AcDbSymbolTableRecord
100
AcDbBlockTableRecord
  2
BESCHRIFT_
  0
BLOCK_RECORD
  5
299
100
AcDbSymbolTableRecord
100
AcDbBlockTableRecord
  2
MASTER_72
  0
BLOCK_RECORD
  5
2A1
100
AcDbSymbolTableRecord
100
AcDbBlockTableRecord
  2
RECTANGLE_86
  0
BLOCK_RECORD
  5
2A5
100
AcDbSymbolTableRecord
100
AcDbBlockTableRecord
  2
CIRCLE_87
  0
BLOCK_RECORD
  5
2A9
100
AcDbSymbolTableRecord
100
AcDbBlockTableRecord
  2
RECTANGLE_73
  0
BLOCK_RECORD
  5
2AD
100
AcDbSymbolTableRecord
100
AcDbBlockTableRecord
  2
CIRCLE_74
  0
BLOCK_RECORD
  5
2B1
100
AcDbSymbolTableRecord
100
AcDbBlockTableRecord
  2
CIRCLE_73
  0
BLOCK_RECORD
  5
2B5
100
AcDbSymbolTableRecord
100
AcDbBlockTableRecord
  2
CIRCLE_154
  0
BLOCK_RECORD
  5
2B9
100
AcDbSymbolTableRecord
100
AcDbBlockTableRecord
  2
CIRCLE_155
  0
BLOCK_RECORD
  5
2BD
100
AcDbSymbolTableRecord
100
AcDbBlockTableRecord
  2
RECTANGLE_154
  0
BLOCK_RECORD
  5
2C1
100
AcDbSymbolTableRecord
100
AcDbBlockTableRecord
  2
MASTER_81
  0
BLOCK_RECORD
  5
2C9
100
AcDbSymbolTableRecord
100
AcDbBlockTableRecord
  2
MASTER_82
  0
BLOCK_RECORD
  5
2CE
100
AcDbSymbolTableRecord
100
AcDbBlockTableRecord
  2
MASTER_83
  0
BLOCK_RECORD
  5
2D3
100
AcDbSymbolTableRecord
100
AcDbBlockTableRecord
  2
MASTER_84
  0
BLOCK_RECORD
  5
2DB
100
AcDbSymbolTableRecord
100
AcDbBlockTableRecord
  2
CIRCLE_182
  0
BLOCK_RECORD
  5
2DF
100
AcDbSymbolTableRecord
100
AcDbBlockTableRecord
  2
GEWINDE_183
  0
BLOCK_RECORD
  5
2E4
100
AcDbSymbolTableRecord
100
AcDbBlockTableRecord
  2
CIRCLE_146
  0
BLOCK_RECORD
  5
2E8
100
AcDbSymbolTableRecord
100
AcDbBlockTableRecord
  2
GEWINDE_147
  0
BLOCK_RECORD
  5
2ED
100
AcDbSymbolTableRecord
100
AcDbBlockTableRecord
  2
MASTER_89
  0
BLOCK_RECORD
  5
2F5
100
AcDbSymbolTableRecord
100
AcDbBlockTableRecord
  2
MASTER_90
  0
BLOCK_RECORD
  5
2FA
100
AcDbSymbolTableRecord
100
AcDbBlockTableRecord
  2
MASTER_91
  0
BLOCK_RECORD
  5
302
100
AcDbSymbolTableRecord
100
AcDbBlockTableRecord
  2
MASTER_92
  0
BLOCK_RECORD
  5
307
100
AcDbSymbolTableRecord
100
AcDbBlockTableRecord
  2
RECTANGLE_88
  0
BLOCK_RECORD
  5
30B
100
AcDbSymbolTableRecord
100
AcDbBlockTableRecord
  2
RECTANGLE_148
  0
BLOCK_RECORD
  5
30F
100
AcDbSymbolTableRecord
100
AcDbBlockTableRecord
  2
MASTER_95
  0
BLOCK_RECORD
  5
314
100
AcDbSymbolTableRecord
100
AcDbBlockTableRecord
  2
MASTER_96
  0
BLOCK_RECORD
  5
31C
100
AcDbSymbolTableRecord
100
AcDbBlockTableRecord
  2
MASTER_97
  0
BLOCK_RECORD
  5
321
100
AcDbSymbolTableRecord
100
AcDbBlockTableRecord
  2
CIRCLE_152
  0
BLOCK_RECORD
  5
325
100
AcDbSymbolTableRecord
100
AcDbBlockTableRecord
  2
CIRCLE_148
  0
BLOCK_RECORD
  5
329
100
AcDbSymbolTableRecord
100
AcDbBlockTableRecord
  2
CIRCLE_79
  0
BLOCK_RECORD
  5
32D
100
AcDbSymbolTableRecord
100
AcDbBlockTableRecord
  2
MASTER_101
  0
BLOCK_RECORD
  5
335
100
AcDbSymbolTableRecord
100
AcDbBlockTableRecord
  2
MASTER_102
  0
BLOCK_RECORD
  5
33A
100
AcDbSymbolTableRecord
100
AcDbBlockTableRecord
  2
MASTER_103
  0
BLOCK_RECORD
  5
33F
100
AcDbSymbolTableRecord
100
AcDbBlockTableRecord
  2
RECTANGLE_152
  0
BLOCK_RECORD
  5
343
100
AcDbSymbolTableRecord
100
AcDbBlockTableRecord
  2
GEWINDE_151
  0
BLOCK_RECORD
  5
348
100
AcDbSymbolTableRecord
100
AcDbBlockTableRecord
  2
MASTER_106
  0
BLOCK_RECORD
  5
350
100
AcDbSymbolTableRecord
100
AcDbBlockTableRecord
  2
CIRCLE_107
  0
BLOCK_RECORD
  5
354
100
AcDbSymbolTableRecord
100
AcDbBlockTableRecord
  2
CIRCLE_101
  0
BLOCK_RECORD
  5
358
100
AcDbSymbolTableRecord
100
AcDbBlockTableRecord
  2
MASTER_109
  0
BLOCK_RECORD
  5
360
100
AcDbSymbolTableRecord
100
AcDbBlockTableRecord
  2
MASTER_110
  0
BLOCK_RECORD
  5
365
100
AcDbSymbolTableRecord
100
AcDbBlockTableRecord
  2
RECTANGLE_111
  0
BLOCK_RECORD
  5
369
100
AcDbSymbolTableRecord
100
AcDbBlockTableRecord
  2
MASTER_112
  0
BLOCK_RECORD
  5
36E
100
AcDbSymbolTableRecord
100
AcDbBlockTableRecord
  2
MASTER_113
  0
BLOCK_RECORD
  5
376
100
AcDbSymbolTableRecord
100
AcDbBlockTableRecord
  2
RECTANGLE_114
  0
BLOCK_RECORD
  5
37A
100
AcDbSymbolTableRecord
100
AcDbBlockTableRecord
  2
CIRCLE_66
  0
BLOCK_RECORD
  5
37E
100
AcDbSymbolTableRecord
100
AcDbBlockTableRecord
  2
MASTER_116
  0
BLOCK_RECORD
  5
386
100
AcDbSymbolTableRecord
100
AcDbBlockTableRecord
  2
CIRCLE_114
  0
BLOCK_RECORD
  5
38A
100
AcDbSymbolTableRecord
100
AcDbBlockTableRecord
  2
CIRCLE_118
  0
BLOCK_RECORD
  5
38E
100
AcDbSymbolTableRecord
100
AcDbBlockTableRecord
  2
CIRCLE_119
  0
BLOCK_RECORD
  5
392
100
AcDbSymbolTableRecord
100
AcDbBlockTableRecord
  2
MASTER_120
  0
BLOCK_RECORD
  5
39A
100
AcDbSymbolTableRecord
100
AcDbBlockTableRecord
  2
RECTANGLE_121
  0
BLOCK_RECORD
  5
39E
100
AcDbSymbolTableRecord
100
AcDbBlockTableRecord
  2
MASTER_122
  0
BLOCK_RECORD
  5
3A3
100
AcDbSymbolTableRecord
100
AcDbBlockTableRecord
  2
MASTER_123
  0
BLOCK_RECORD
  5
3AB
100
AcDbSymbolTableRecord
100
AcDbBlockTableRecord
  2
RECTANGLE_113
  0
BLOCK_RECORD
  5
3AF
100
AcDbSymbolTableRecord
100
AcDbBlockTableRecord
  2
MASTER_125
  0
BLOCK_RECORD
  5
3B4
100
AcDbSymbolTableRecord
100
AcDbBlockTableRecord
  2
CIRCLE_126
  0
BLOCK_RECORD
  5
3B8
100
AcDbSymbolTableRecord
100
AcDbBlockTableRecord
  2
CIRCLE_127
  0
BLOCK_RECORD
  5
3BC
100
AcDbSymbolTableRecord
100
AcDbBlockTableRecord
  2
MASTER_128
  0
BLOCK_RECORD
  5
3C4
100
AcDbSymbolTableRecord
100
AcDbBlockTableRecord
  2
MASTER_129
  0
BLOCK_RECORD
  5
3C9
100
AcDbSymbolTableRecord
100
AcDbBlockTableRecord
  2
MASTER_130
  0
BLOCK_RECORD
  5
3CE
100
AcDbSymbolTableRecord
100
AcDbBlockTableRecord
  2
RECTANGLE_131
  0
BLOCK_RECORD
  5
3D2
100
AcDbSymbolTableRecord
100
AcDbBlockTableRecord
  2
GEWINDE_132
  0
BLOCK_RECORD
  5
3D7
100
AcDbSymbolTableRecord
100
AcDbBlockTableRecord
  2
MASTER_133
  0
BLOCK_RECORD
  5
3DF
100
AcDbSymbolTableRecord
100
AcDbBlockTableRecord
  2
RECTANGLE_189
  0
BLOCK_RECORD
  5
3E3
100
AcDbSymbolTableRecord
100
AcDbBlockTableRecord
  2
CIRCLE_190
  0
BLOCK_RECORD
  5
3E7
100
AcDbSymbolTableRecord
100
AcDbBlockTableRecord
  2
MASTER_136
  0
BLOCK_RECORD
  5
3EF
100
AcDbSymbolTableRecord
100
AcDbBlockTableRecord
  2
MASTER_137
  0
BLOCK_RECORD
  5
3FB
100
AcDbSymbolTableRecord
100
AcDbBlockTableRecord
  2
AUTO-BEMA\U+00DFUNG
  0
BLOCK_RECORD
  5
403
100
AcDbSymbolTableRecord
100
AcDbBlockTableRecord
  2
GEZACKTER_STERN_2
  0
BLOCK_RECORD
  5
409
100
AcDbSymbolTableRecord
100
AcDbBlockTableRecord
  2
NOTIZENFELD_DREIECKE
  0
BLOCK_RECORD
  5
424
100
AcDbSymbolTableRecord
100
AcDbBlockTableRecord
  2
TITELBLOCK_FIRMA_1
  0
BLOCK_RECORD
  5
431
100
AcDbSymbolTableRecord
100
AcDbBlockTableRecord
  2
TITELBLOCK_KLASSISCH
  0
BLOCK_RECORD
  5
435
100
AcDbSymbolTableRecord
100
AcDbBlockTableRecord
  2
RAND_ELEGANT
  0
BLOCK_RECORD
  5
441
100
AcDbSymbolTableRecord
100
AcDbBlockTableRecord
  2
RAND_DREIECKE
  0
BLOCK_RECORD
  5
456
100
AcDbSymbolTableRecord
100
AcDbBlockTableRecord
  2
RAND_TECHNISCH_1
  0
BLOCK_RECORD
  5
489
100
AcDbSymbolTableRecord
100
AcDbBlockTableRecord
  2
RAND_TECHNISCH_2
  0
BLOCK_RECORD
  5
4AF
100
AcDbSymbolTableRecord
100
AcDbBlockTableRecord
  2
ZONEN_-_8
  0
BLOCK_RECORD
  5
4D4
100
AcDbSymbolTableRecord
100
AcDbBlockTableRecord
  2
SPALTE_5_ZEILEN
  0
BLOCK_RECORD
  5
4DD
100
AcDbSymbolTableRecord
100
AcDbBlockTableRecord
  2
FORTSETZUNGSBLATT_KLEIN
  0
BLOCK_RECORD
  5
51D
100
AcDbSymbolTableRecord
100
AcDbBlockTableRecord
  2
\U+00DCBERARBEITUNGSZONE_KLEIN
  0
BLOCK_RECORD
  5
52C
100
AcDbSymbolTableRecord
100
AcDbBlockTableRecord
  2
MASTER_152
  0
BLOCK_RECORD
  5
530
100
AcDbSymbolTableRecord
100
AcDbBlockTableRecord
  2
MASTER_153
  0
BLOCK_RECORD
  5
534
100
AcDbSymbolTableRecord
100
AcDbBlockTableRecord
  2
MASTER_154
  0
BLOCK_RECORD
  5
538
100
AcDbSymbolTableRecord
100
AcDbBlockTableRecord
  2
MASTER_155
  0
BLOCK_RECORD
  5
53F
100
AcDbSymbolTableRecord
100
AcDbBlockTableRecord
  2
MASTER_156
  0
BLOCK_RECORD
  5
545
100
AcDbSymbolTableRecord
100
AcDbBlockTableRecord
  2
MASTER_157
  0
BLOCK_RECORD
  5
54C
100
AcDbSymbolTableRecord
100
AcDbBlockTableRecord
  2
MASTER_158
  0
BLOCK_RECORD
  5
553
100
AcDbSymbolTableRecord
100
AcDbBlockTableRecord
  2
MASTER_159
  0
BLOCK_RECORD
  5
561
100
AcDbSymbolTableRecord
100
AcDbBlockTableRecord
  2
FLEX
  0
BLOCK_RECORD
  5
56D
100
AcDbSymbolTableRecord
100
AcDbBlockTableRecord
  2
BOHRUNG2
  0
BLOCK_RECORD
  5
579
100
AcDbSymbolTableRecord
100
AcDbBlockTableRecord
  2
BOHRUNG
  0
BLOCK_RECORD
  5
57E
100
AcDbSymbolTableRecord
100
AcDbBlockTableRecord
  2
MASTER_163
  0
BLOCK_RECORD
  5
583
100
AcDbSymbolTableRecord
100
AcDbBlockTableRecord
  2
MASTER_164
  0
BLOCK_RECORD
  5
588
100
AcDbSymbolTableRecord
100
AcDbBlockTableRecord
  2
MASTER_165
  0
BLOCK_RECORD
  5
592
100
AcDbSymbolTableRecord
100
AcDbBlockTableRecord
  2
MASTER_166
  0
BLOCK_RECORD
  5
597
100
AcDbSymbolTableRecord
100
AcDbBlockTableRecord
  2
MASTER_167
  0
BLOCK_RECORD
  5
59F
100
AcDbSymbolTableRecord
100
AcDbBlockTableRecord
  2
MASTER_168
  0
BLOCK_RECORD
  5
5B2
100
AcDbSymbolTableRecord
100
AcDbBlockTableRecord
  2
MASTER_169
  0
BLOCK_RECORD
  5
5B7
100
AcDbSymbolTableRecord
100
AcDbBlockTableRecord
  2
MASTER_170
  0
BLOCK_RECORD
  5
5BB
100
AcDbSymbolTableRecord
100
AcDbBlockTableRecord
  2
MASTER_171
  0
BLOCK_RECORD
  5
5C5
100
AcDbSymbolTableRecord
100
AcDbBlockTableRecord
  2
MASTER_172
  0
BLOCK_RECORD
  5
5EA
100
AcDbSymbolTableRecord
100
AcDbBlockTableRecord
  2
LAGER-FRONT
  0
BLOCK_RECORD
  5
5F1
100
AcDbSymbolTableRecord
100
AcDbBlockTableRecord
  2
SPACE
  0
BLOCK_RECORD
  5
5F5
100
AcDbSymbolTableRecord
100
AcDbBlockTableRecord
  2
M-LINIE
  0
BLOCK_RECORD
  5
5FA
100
AcDbSymbolTableRecord
100
AcDbBlockTableRecord
  2
SCHRAUBEN_M5
  0
BLOCK_RECORD
  5
650
100
AcDbSymbolTableRecord
100
AcDbBlockTableRecord
  2
P-LINIE
  0
ENDTAB
  0
ENDSEC
  0
SECTION
  2
BLOCKS
  0
BLOCK
  5
19
100
AcDbEntity
  8
0
100
AcDbBlockBegin
  2
*MODEL_SPACE
 70
     0
 10
0.0
 20
0.0
 30
0.0
  3
*MODEL_SPACE
  1

  0
ENDBLK
  5
1A
100
AcDbEntity
  8
0
100
AcDbBlockEnd
  0
BLOCK
  5
16
100
AcDbEntity
 67
     1
  8
0
100
AcDbBlockBegin
  2
*PAPER_SPACE
 70
     0
 10
0.0
 20
0.0
 30
0.0
  3
*PAPER_SPACE
  1

  0
ENDBLK
  5
17
100
AcDbEntity
 67
     1
  8
0
100
AcDbBlockEnd
  0
BLOCK
  5
76
100
AcDbEntity
  8
0
100
AcDbBlockBegin
  2
KREIS
 70
     0
 10
0.0
 20
0.0
 30
0.0
  3
KREIS
  1

  0
LWPOLYLINE
  5
77
102
{ACAD_REACTORS
330
AC
102
}
100
AcDbEntity
  8
0
  6
CONTINUOUS
 62
     7
100
AcDbPolyline
 90
        2
 70
     1
 10
35.0
 20
50.0
 42
-1.0
 10
65.0
 20
50.0
 42
-1.0
  0
ENDBLK
  5
78
100
AcDbEntity
  8
0
100
AcDbBlockEnd
  0
BLOCK
  5
7A
100
AcDbEntity
  8
0
100
AcDbBlockBegin
  2
FELD
 70
     0
 10
0.0
 20
0.0
 30
0.0
  3
FELD
  1

  0
LWPOLYLINE
  5
7B
102
{ACAD_REACTORS
330
AC
102
}
100
AcDbEntity
  8
0
  6
CONTINUOUS
 62
     7
100
AcDbPolyline
 90
        4
 70
     1
 10
30.0
 20
35.0
 10
70.0
 20
35.0
 10
70.0
 20
65.0
 10
30.0
 20
65.0
  0
ENDBLK
  5
7C
100
AcDbEntity
  8
0
100
AcDbBlockEnd
  0
BLOCK
  5
7E
100
AcDbEntity
  8
0
100
AcDbBlockBegin
  2
F\U+00FCNFECK
 70
     0
 10
0.0
 20
0.0
 30
0.0
  3
F\U+00FCNFECK
  1

  0
LWPOLYLINE
  5
7F
102
{ACAD_REACTORS
330
AC
102
}
100
AcDbEntity
  8
0
  6
CONTINUOUS
 62
     7
100
AcDbPolyline
 90
        5
 70
     1
 10
50.0
 20
70.0
 10
28.970756
 20
54.721359
 10
37.003213
 20
30.0
 10
62.996787
 20
30.0
 10
71.029244
 20
54.721359
  0
ENDBLK
  5
80
100
AcDbEntity
  8
0
100
AcDbBlockEnd
  0
BLOCK
  5
82
100
AcDbEntity
  8
0
100
AcDbBlockBegin
  2
STERN_7
 70
     0
 10
0.0
 20
0.0
 30
0.0
  3
STERN_7
  1

  0
LWPOLYLINE
  5
83
102
{ACAD_REACTORS
330
AC
102
}
100
AcDbEntity
  8
0
  6
CONTINUOUS
 62
     7
100
AcDbPolyline
 90
       14
 70
     1
 10
44.450419
 20
60.778277
 10
33.548778
 20
62.077509
 10
37.209519
 20
51.877441
 10
29.485665
 20
44.275834
 10
39.742831
 20
40.778278
 10
40.87026
 20
30.0
 10
50.0
 20
35.838685
 10
59.12974
 20
30.0
 10
60.257168
 20
40.778278
 10
70.514335
 20
44.275834
 10
62.790479
 20
51.877441
 10
66.451219
 20
62.076
 10
55.692298
 20
60.778278
 10
49.999997
 20
70.0
  0
ENDBLK
  5
84
100
AcDbEntity
  8
0
100
AcDbBlockEnd
  0
BLOCK
  5
86
100
AcDbEntity
  8
0
100
AcDbBlockBegin
  2
SECHSECK
 70
     0
 10
0.0
 20
0.0
 30
0.0
  3
SECHSECK
  1

  0
LWPOLYLINE
  5
87
102
{ACAD_REACTORS
330
AC
102
}
100
AcDbEntity
  8
0
  6
CONTINUOUS
 62
     7
100
AcDbPolyline
 90
        6
 70
     1
 10
61.547005
 20
70.0
 10
38.452995
 20
70.0
 10
26.905989
 20
50.0
 10
38.452995
 20
30.0
 10
61.547005
 20
30.0
 10
73.094011
 20
50.0
  0
ENDBLK
  5
88
100
AcDbEntity
  8
0
100
AcDbBlockEnd
  0
BLOCK
  5
8A
100
AcDbEntity
  8
0
100
AcDbBlockBegin
  2
CIRCLE_8
 70
     0
 10
0.0
 20
0.0
 30
0.0
  3
CIRCLE_8
  1

  0
LWPOLYLINE
  5
8B
102
{ACAD_REACTORS
330
AC
102
}
100
AcDbEntity
  8
0
  6
CONTINUOUS
 62
     7
100
AcDbPolyline
 90
        2
 70
     1
 10
30.0
 20
50.0
 42
-1.0
 10
70.0
 20
50.0
 42
-1.0
  0
ENDBLK
  5
8C
100
AcDbEntity
  8
0
100
AcDbBlockEnd
  0
BLOCK
  5
8E
100
AcDbEntity
  8
0
100
AcDbBlockBegin
  2
VERBINDER_LINIE_KURVE
 70
     0
 10
0.0
 20
0.0
 30
0.0
  3
VERBINDER_LINIE_KURVE
  1

  0
SPLINE
  5
8F
100
AcDbEntity
  8
0
  6
CONTINUOUS
 62
     7
100
AcDbSpline
210
0.0
220
0.0
230
1.0
 70
     8
 71
     2
 72
     6
 73
     3
 74
     0
 42
0.0000001
 43
0.0000001
 40
0.0
 40
0.0
 40
0.0
 40
1.0
 40
1.0
 40
1.0
 10
61.545544730744027
 20
60.000000000000135
 30
0.0
 10
39.474476918878651
 20
52.071067811865298
 30
0.0
 10
41.545544730744297
 20
39.999999999999851
 30
0.0
  0
ENDBLK
  5
90
100
AcDbEntity
  8
0
100
AcDbBlockEnd
  0
BLOCK
  5
92
100
AcDbEntity
  8
0
100
AcDbBlockBegin
  2
KONZENTRISCHES_ZENTRUM
 70
     0
 10
0.0
 20
0.0
 30
0.0
  3
KONZENTRISCHES_ZENTRUM
  1

  0
CIRCLE
  5
93
102
{ACAD_REACTORS
330
AC
102
}
100
AcDbEntity
  8
0
  6
CONTINUOUS
 62
     7
100
AcDbCircle
 10
12.7
 20
12.7
 30
0.0
 40
10.0
  0
ENDBLK
  5
94
100
AcDbEntity
  8
0
100
AcDbBlockEnd
  0
BLOCK
  5
96
100
AcDbEntity
  8
0
100
AcDbBlockBegin
  2
AUTO-H\U+00F6HE
 70
     0
 10
0.0
 20
0.0
 30
0.0
  3
AUTO-H\U+00F6HE
  1

  0
LWPOLYLINE
  5
97
102
{ACAD_REACTORS
330
AC
102
}
100
AcDbEntity
  8
0
  6
CONTINUOUS
 62
     7
100
AcDbPolyline
 90
        4
 70
     1
 10
35.0
 20
35.0
 10
65.0
 20
35.0
 10
65.0
 20
65.0
 10
35.0
 20
65.0
  0
MTEXT
  5
98
100
AcDbEntity
  8
0
100
AcDbMText
 10
50.0
 20
50.0
 30
0.0
 40
2.054647
 41
28.037166
 71
     5
 72
     5
  1
\C7;\fArial|b0|i0|;\H2.0546471100301;\U+00C4ndern Sie die \PFeldbreite, um die \PAbsatzbreite \Peinzustellen. Die \PFeldh\U+00F6he wird dem \Peingegebenen Text \Pautomatisch \Pangepa\U+00DFt.
  0
ENDBLK
  5
99
100
AcDbEntity
  8
0
100
AcDbBlockEnd
  0
BLOCK
  5
9B
100
AcDbEntity
  8
0
100
AcDbBlockBegin
  2
MANUELLE_VERARBEITUNG
 70
     0
 10
0.0
 20
0.0
 30
0.0
  3
MANUELLE_VERARBEITUNG
  1

  0
LWPOLYLINE
  5
9C
102
{ACAD_REACTORS
330
AC
102
}
100
AcDbEntity
  8
0
  6
CONTINUOUS
 62
     7
100
AcDbPolyline
 90
        4
 70
     1
 10
43.75
 20
42.5
 10
56.25
 20
42.5
 10
62.5
 20
57.5
 10
37.5
 20
57.5
  0
ENDBLK
  5
9D
100
AcDbEntity
  8
0
100
AcDbBlockEnd
  0
BLOCK
  5
9F
100
AcDbEntity
  8
0
100
AcDbBlockBegin
  2
REGEN
 70
     2
 10
0.0
 20
0.0
 30
0.0
  3
REGEN
  1

  0
ELLIPSE
  5
A0
102
{ACAD_REACTORS
330
AC
102
}
100
AcDbEntity
  8
0
  6
CONTINUOUS
 62
     7
100
AcDbEllipse
 10
34.257622
 20
59.079423
 30
0.0
 11
0.0
 21
-4.2966642289753025
 31
0.0
210
0.0
220
0.0
230
1.0
 40
0.990913
 41
2.8052485758816648
 42
5.7643678215184746
  0
ELLIPSE
  5
A1
102
{ACAD_REACTORS
330
AC
102
}
100
AcDbEntity
  8
0
  6
CONTINUOUS
 62
     7
100
AcDbEllipse
 10
40.098095
 20
64.780578
 30
0.0
 11
0.0
 21
-4.7687629405205252
 31
0.0
210
0.0
220
0.0
230
1.0
 40
0.990913
 41
3.0879947409278046
 42
5.0646322144340878
  0
ELLIPSE
  5
A2
102
{ACAD_REACTORS
330
AC
102
}
100
AcDbEntity
  8
0
  6
CONTINUOUS
 62
     7
100
AcDbEllipse
 10
46.379979
 20
68.436767
 30
0.0
 11
0.0
 21
-6.1836779361200485
 31
0.0
210
0.0
220
0.0
230
1.0
 40
0.990913
 41
1.9499141963353575
 42
4.5326084158265516
  0
ELLIPSE
  5
A3
102
{ACAD_REACTORS
330
AC
102
}
100
AcDbEntity
  8
0
  6
CONTINUOUS
 62
     7
100
AcDbEllipse
 10
53.301987
 20
65.607736
 30
0.0
 11
0.0
 21
-5.2659117823533572
 31
0.0
210
0.0
220
0.0
230
1.0
 40
0.990913
 41
1.5505360216870134
 42
3.3794773683321635
  0
ELLIPSE
  5
A4
102
{ACAD_REACTORS
330
AC
102
}
100
AcDbEntity
  8
0
  6
CONTINUOUS
 62
     7
100
AcDbEllipse
 10
60.159262
 20
62.730851
 30
0.0
 11
0.0
 21
-3.2270924799667746
 31
0.0
210
0.0
220
0.0
230
1.0
 40
0.990913
 41
1.2637016183827692
 42
3.6802057974435467
  0
ELLIPSE
  5
A5
102
{ACAD_REACTORS
330
AC
102
}
100
AcDbEntity
  8
0
  6
CONTINUOUS
 62
     7
100
AcDbEllipse
 10
65.087774
 20
57.175628
 30
0.0
 11
0.0
 21
-4.9572708810708423
 31
0.0
210
0.0
220
0.0
230
1.0
 40
0.990913
 41
1.1932494279598485
 42
3.5344064314598307
  0
LINE
  5
A6
102
{ACAD_REACTORS
330
AC
102
}
100
AcDbEntity
  8
0
  6
CONTINUOUS
 62
     7
100
AcDbLine
 10
69.65404
 20
55.348173
 30
0.0
 11
32.146465
 21
55.348173
 31
0.0
  0
ELLIPSE
  5
A7
102
{ACAD_REACTORS
330
AC
102
}
100
AcDbEntity
  8
0
  6
CONTINUOUS
 62
     7
100
AcDbEllipse
 10
26.687852
 20
53.255323
 30
0.0
 11
0.0
 21
-11.207142384776699
 31
0.0
210
0.0
220
0.0
230
1.0
 40
0.990913
 41
1.3251657761880524
 42
1.6501444136248553
  0
ELLIPSE
  5
A8
102
{ACAD_REACTORS
330
AC
102
}
100
AcDbEntity
  8
0
  6
CONTINUOUS
 62
     7
100
AcDbEllipse
 10
35.744074
 20
50.956698
 30
0.0
 11
0.0
 21
-1.783260616816952
 31
0.0
210
0.0
220
0.0
230
1.0
 40
0.990913
 41
0.6857277011601736
 42
1.329233037762209
  0
ELLIPSE
  5
A9
102
{ACAD_REACTORS
330
AC
102
}
100
AcDbEntity
  8
0
  6
CONTINUOUS
 62
     7
100
AcDbEllipse
 10
37.944708
 20
49.062097
 30
0.0
 11
0.0
 21
-1.2067328258728638
 31
0.0
210
0.0
220
0.0
230
1.0
 40
0.990913
 41
4.2719897353848033
 42
6.1265873117101783
  0
ELLIPSE
  5
AA
102
{ACAD_REACTORS
330
AC
102
}
100
AcDbEntity
  8
0
  6
CONTINUOUS
 62
     7
100
AcDbEllipse
 10
37.522291
 20
49.582129
 30
0.0
 11
0.0
 21
-1.7284742119374805
 31
0.0
210
0.0
220
0.0
230
1.0
 40
0.990913
 41
0.1381850512444882
 42
1.7721679452952053
  0
ELLIPSE
  5
AB
102
{ACAD_REACTORS
330
AC
102
}
100
AcDbEntity
  8
0
  6
CONTINUOUS
 62
     7
100
AcDbEllipse
 10
30.858212
 20
49.380524
 30
0.0
 11
0.0
 21
-8.4365080938742434
 31
0.0
210
0.0
220
0.0
230
1.0
 40
0.990913
 41
1.6357174263095846
 42
2.1707275657424598
  0
HATCH
  5
AC
100
AcDbEntity
  8
0
 62
     7
100
AcDbHatch
 10
0.0
 20
0.0
 30
0.0
210
0.0
220
0.0
230
1.0
  2
SOLID
 70
     1
 71
     1
 91
        9
 92
        1
 93
        5
 72
     3
 10
26.687852180275499
 20
53.255323399771974
 11
11.105307300678204
 21
0.0
 40
1.00917
 50
355.45369
 51
14.073594
 73
     0
 72
     3
 10
35.744074024974807
 20
50.956698093956831
 11
1.7670567988722592
 21
0.0
 40
1.00917
 50
13.840557
 51
50.710697
 73
     0
 72
     3
 10
37.944708075394118
 20
49.062097493113768
 11
1.1957676989396928
 21
0.0
 40
1.00917
 50
154.766982
 51
261.027596
 73
     1
 72
     3
 10
37.522291204737712
 20
49.582128522247935
 11
1.7127682174304562
 21
0.0
 40
1.00917
 50
277.91742
 51
11.537744
 73
     1
 72
     3
 10
30.858212209753653
 20
49.380523841334018
 11
8.3598487206155916
 21
0.0
 40
1.00917
 50
3.719705
 51
34.373528
 73
     1
 97
       83
330
31
330
32
330
33
330
34
330
35
330
36
330
37
330
38
330
39
330
3A
330
3B
330
3C
330
3D
330
3E
330
3F
330
40
330
41
330
42
330
43
330
44
330
45
330
46
330
47
330
48
330
49
330
4A
330
4B
330
4C
330
4D
330
4E
330
4F
330
50
330
51
330
52
330
53
330
54
330
55
330
56
330
57
330
58
330
59
330
5A
330
5B
330
5C
330
5D
330
5E
330
5F
330
60
330
61
330
62
330
63
330
64
330
65
330
66
330
67
330
68
330
69
330
6A
330
6B
330
6C
330
6D
330
6E
330
77
330
7B
330
7F
330
83
330
87
330
8B
330
93
330
97
330
9C
330
A0
330
A1
330
A2
330
A3
330
A4
330
A5
330
A6
330
A7
330
A8
330
A9
330
AA
330
AB
 92
        1
 93
        5
 72
     3
 10
25.807305457592001
 20
40.808647083586216
 11
11.105307300678071
 21
0.0
 40
1.00917
 50
355.45369
 51
14.073594
 73
     0
 72
     3
 10
34.863551532466268
 20
38.510011912922288
 11
1.7670309337856822
 21
0.0
 40
1.00917
 50
13.840437
 51
50.711026
 73
     0
 72
     3
 10
37.064174082011775
 20
36.615429139767734
 11
1.1957774781722896
 21
0.0
 40
1.00917
 50
154.767418
 51
261.027052
 73
     1
 72
     3
 10
36.641744482054115
 20
37.135452206062183
 11
1.7127682174304351
 21
0.0
 40
1.00917
 50
277.91742
 51
11.537744
 73
     1
 72
     3
 10
29.977694877030132
 20
36.93385776472077
 11
8.3598187343122241
 21
0.0
 40
1.00917
 50
3.719649
 51
34.373584
 73
     1
 97
        5
330
AD
330
AE
330
AF
330
B0
330
B1
 92
        1
 93
        5
 72
     3
 10
31.675699588174609
 20
47.232738707174697
 11
11.105307300678083
 21
0.0
 40
1.00917
 50
355.45369
 51
14.073594
 73
     0
 72
     3
 10
40.731921432873783
 20
44.934113401359589
 11
1.7670567988722823
 21
0.0
 40
1.00917
 50
13.840557
 51
50.710697
 73
     0
 72
     3
 10
42.932562941488463
 20
43.039516785183018
 11
1.1957727622737873
 21
0.0
 40
1.00917
 50
154.767305
 51
261.027272
 73
     1
 72
     3
 10
42.510136344294231
 20
43.559548621112398
 11
1.7127732325501415
 21
0.0
 40
1.00917
 50
277.917474
 51
11.537548
 73
     1
 72
     3
 10
35.84610072677043
 20
43.357945774214414
 11
8.3598110835593182
 21
0.0
 40
1.00917
 50
3.719677
 51
34.37365
 73
     1
 97
        5
330
B2
330
B3
330
B4
330
B5
330
B6
 92
        1
 93
        5
 72
     3
 10
37.842514521255694
 20
52.753440608833245
 11
11.105283538249434
 21
0.0
 40
1.00917
 50
355.453669
 51
14.073614
 73
     0
 72
     3
 10
46.898657150985422
 20
50.454852515697297
 11
1.7671187570521023
 21
0.0
 40
1.00917
 50
13.841227
 51
50.710027
 73
     0
 72
     3
 10
49.099346419936104
 20
48.560216720215401
 11
1.1957676989396919
 21
0.0
 40
1.00917
 50
154.766982
 51
261.027596
 73
     1
 72
     3
 10
48.676929549279713
 20
49.08024774934956
 11
1.7127682174304413
 21
0.0
 40
1.00917
 50
277.91742
 51
11.537744
 73
     1
 72
     3
 10
42.012850554295674
 20
48.878643068435657
 11
8.3598487206155596
 21
0.0
 40
1.00917
 50
3.719705
 51
34.373528
 73
     1
 97
        5
330
B7
330
B8
330
B9
330
BA
330
BB
 92
        1
 93
        5
 72
     3
 10
41.423206364378906
 20
47.232738707174732
 11
11.10530730067843
 21
0.0
 40
1.00917
 50
355.45369
 51
14.073594
 73
     0
 72
     3
 10
50.479372990547034
 20
44.934148595998444
 11
1.7671187570521503
 21
0.0
 40
1.00917
 50
13.841227
 51
50.710027
 73
     0
 72
     3
 10
52.680062259497738
 20
43.039512800516505
 11
1.1957676989396859
 21
0.0
 40
1.00917
 50
154.766982
 51
261.027596
 73
     1
 72
     3
 10
52.257645388841382
 20
43.559543829650664
 11
1.7127682174304371
 21
0.0
 40
1.00917
 50
277.91742
 51
11.537744
 73
     1
 72
     3
 10
45.593566393857046
 20
43.357939148736655
 11
8.3598487206158545
 21
0.0
 40
1.00917
 50
3.719705
 51
34.373528
 73
     1
 97
        5
330
BC
330
BD
330
BE
330
BF
330
C0
 92
        1
 93
        5
 72
     3
 10
46.197518146899739
 20
53.656828312722816
 11
11.105283538249228
 21
0.0
 40
1.00917
 50
355.453669
 51
14.073614
 73
     0
 72
     3
 10
55.253660776629303
 20
51.358240219586861
 11
1.767118757052059
 21
0.0
 40
1.00917
 50
13.841227
 51
50.710027
 73
     0
 72
     3
 10
57.45435004557995
 20
49.463604424105007
 11
1.1957676989396901
 21
0.0
 40
1.00917
 50
154.766982
 51
261.027596
 73
     1
 72
     3
 10
57.031933174923594
 20
49.983635453239138
 11
1.7127682174304046
 21
0.0
 40
1.00917
 50
277.91742
 51
11.537744
 73
     1
 72
     3
 10
50.367854179939563
 20
49.782030772325257
 11
8.3598487206155134
 21
0.0
 40
1.00917
 50
3.719705
 51
34.373528
 73
     1
 97
        5
330
C1
330
C2
330
C3
330
C4
330
C5
 92
        1
 93
        5
 72
     3
 10
50.971781936542186
 20
47.232738707174796
 11
11.105307300679529
 21
0.0
 40
1.00917
 50
355.45369
 51
14.073594
 73
     0
 72
     3
 10
60.027948562711209
 20
44.934148595998614
 11
1.7671187570524185
 21
0.0
 40
1.00917
 50
13.841227
 51
50.710027
 73
     0
 72
     3
 10
62.228637831662155
 20
43.039512800516526
 11
1.195767698939703
 21
0.0
 40
1.00917
 50
154.766982
 51
261.027596
 73
     1
 72
     3
 10
61.806220961005799
 20
43.559543829650643
 11
1.7127682174304046
 21
0.0
 40
1.00917
 50
277.91742
 51
11.537744
 73
     1
 72
     3
 10
55.14214196602147
 20
43.357939148736691
 11
8.3598487206158065
 21
0.0
 40
1.00917
 50
3.719705
 51
34.373528
 73
     1
 97
        5
330
C6
330
C7
330
C8
330
C9
330
CA
 92
        1
 93
        5
 72
     3
 10
46.197494150461537
 20
40.00563707605798
 11
11.105307300677989
 21
0.0
 40
1.00917
 50
355.45369
 51
14.073594
 73
     0
 72
     3
 10
55.253660776629218
 20
37.707046964881741
 11
1.7671187570521663
 21
0.0
 40
1.00917
 50
13.841227
 51
50.710027
 73
     0
 72
     3
 10
57.45435004557995
 20
35.812411169399795
 11
1.1957676989396975
 21
0.0
 40
1.00917
 50
154.766982
 51
261.027596
 73
     1
 72
     3
 10
57.03193317492353
 20
36.332442198533968
 11
1.7127682174304646
 21
0.0
 40
1.00917
 50
277.91742
 51
11.537744
 73
     1
 72
     3
 10
50.367854179939563
 20
36.130837517620066
 11
8.3598487206155134
 21
0.0
 40
1.00917
 50
3.719705
 51
34.373528
 73
     1
 97
        5
330
CB
330
CC
330
CD
330
CE
330
CF
 92
        1
 93
        5
 72
     3
 10
37.842490524817485
 20
40.005637076058001
 11
11.105307300678204
 21
0.0
 40
1.00917
 50
355.45369
 51
14.073594
 73
     0
 72
     3
 10
46.898657150985343
 20
37.707046964881762
 11
1.7671187570522018
 21
0.0
 40
1.00917
 50
13.841227
 51
50.710027
 73
     0
 72
     3
 10
49.099346419936118
 20
35.812411169399809
 11
1.195767698939705
 21
0.0
 40
1.00917
 50
154.766982
 51
261.027596
 73
     1
 72
     3
 10
48.676929549279727
 20
36.332442198533954
 11
1.7127682174304395
 21
0.0
 40
1.00917
 50
277.91742
 51
11.537744
 73
     1
 72
     3
 10
42.012850554295511
 20
36.13083751761998
 11
8.3598487206157284
 21
0.0
 40
1.00917
 50
3.719705
 51
34.373528
 73
     1
 97
        5
330
D0
330
D1
330
D2
330
D3
330
D4
 75
     0
 76
     1
 98
        0
  0
ELLIPSE
  5
AD
102
{ACAD_REACTORS
330
AC
102
}
100
AcDbEntity
  8
0
  6
CONTINUOUS
 62
     7
100
AcDbEllipse
 10
25.807305
 20
40.808647
 30
0.0
 11
0.0
 21
-11.207142384776565
 31
0.0
210
0.0
220
0.0
230
1.0
 40
0.990913
 41
1.3251657761880506
 42
1.6501444136248573
  0
ELLIPSE
  5
AE
102
{ACAD_REACTORS
330
AC
102
}
100
AcDbEntity
  8
0
  6
CONTINUOUS
 62
     7
100
AcDbEllipse
 10
34.863552
 20
38.510012
 30
0.0
 11
0.0
 21
-1.783234514548891
 31
0.0
210
0.0
220
0.0
230
1.0
 40
0.990913
 41
0.6857219601586131
 42
1.3292351288557389
  0
ELLIPSE
  5
AF
102
{ACAD_REACTORS
330
AC
102
}
100
AcDbEntity
  8
0
  6
CONTINUOUS
 62
     7
100
AcDbEllipse
 10
37.064174
 20
36.615429
 30
0.0
 11
0.0
 21
-1.2067426947805091
 31
0.0
210
0.0
220
0.0
230
1.0
 40
0.990913
 41
4.2719973531146742
 42
6.1265778258733041
  0
ELLIPSE
  5
B0
102
{ACAD_REACTORS
330
AC
102
}
100
AcDbEntity
  8
0
  6
CONTINUOUS
 62
     7
100
AcDbEllipse
 10
36.641744
 20
37.135452
 30
0.0
 11
0.0
 21
-1.7284742119374592
 31
0.0
210
0.0
220
0.0
230
1.0
 40
0.990913
 41
0.1381850512444736
 42
1.7721679452952137
  0
ELLIPSE
  5
B1
102
{ACAD_REACTORS
330
AC
102
}
100
AcDbEntity
  8
0
  6
CONTINUOUS
 62
     7
100
AcDbEllipse
 10
29.977695
 20
36.933858
 30
0.0
 11
0.0
 21
-8.4364778325980492
 31
0.0
210
0.0
220
0.0
230
1.0
 40
0.990913
 41
1.6357164432181941
 42
2.1707285488338535
  0
ELLIPSE
  5
B2
102
{ACAD_REACTORS
330
AC
102
}
100
AcDbEntity
  8
0
  6
CONTINUOUS
 62
     7
100
AcDbEllipse
 10
31.6757
 20
47.232739
 30
0.0
 11
0.0
 21
-11.207142384776578
 31
0.0
210
0.0
220
0.0
230
1.0
 40
0.990913
 41
1.3251657761880504
 42
1.6501444136248569
  0
ELLIPSE
  5
B3
102
{ACAD_REACTORS
330
AC
102
}
100
AcDbEntity
  8
0
  6
CONTINUOUS
 62
     7
100
AcDbEllipse
 10
40.731921
 20
44.934113
 30
0.0
 11
0.0
 21
-1.7832606168169753
 31
0.0
210
0.0
220
0.0
230
1.0
 40
0.990913
 41
0.6857277011601739
 42
1.3292330377621975
  0
ELLIPSE
  5
B4
102
{ACAD_REACTORS
330
AC
102
}
100
AcDbEntity
  8
0
  6
CONTINUOUS
 62
     7
100
AcDbEllipse
 10
42.932563
 20
43.039517
 30
0.0
 11
0.0
 21
-1.2067379356374657
 31
0.0
210
0.0
220
0.0
230
1.0
 40
0.990913
 41
4.2719953812208225
 42
6.1265816658741645
  0
ELLIPSE
  5
B5
102
{ACAD_REACTORS
330
AC
102
}
100
AcDbEntity
  8
0
  6
CONTINUOUS
 62
     7
100
AcDbEllipse
 10
42.510136
 20
43.559549
 30
0.0
 11
0.0
 21
-1.7284792730455496
 31
0.0
210
0.0
220
0.0
230
1.0
 40
0.990913
 41
0.1381859811479624
 42
1.7721645183271142
  0
ELLIPSE
  5
B6
102
{ACAD_REACTORS
330
AC
102
}
100
AcDbEntity
  8
0
  6
CONTINUOUS
 62
     7
100
AcDbEllipse
 10
35.846101
 20
43.357946
 30
0.0
 11
0.0
 21
-8.4364701116881413
 31
0.0
210
0.0
220
0.0
230
1.0
 40
0.990913
 41
1.6357169320093599
 42
2.1707296938780152
  0
ELLIPSE
  5
B7
102
{ACAD_REACTORS
330
AC
102
}
100
AcDbEntity
  8
0
  6
CONTINUOUS
 62
     7
100
AcDbEllipse
 10
37.842515
 20
52.753441
 30
0.0
 11
0.0
 21
-11.207118404447707
 31
0.0
210
0.0
220
0.0
230
1.0
 40
0.990913
 41
1.3251654254103944
 42
1.6501447644025127
  0
ELLIPSE
  5
B8
102
{ACAD_REACTORS
330
AC
102
}
100
AcDbEntity
  8
0
  6
CONTINUOUS
 62
     7
100
AcDbEllipse
 10
46.898657
 20
50.454853
 30
0.0
 11
0.0
 21
-1.7833231431500469
 31
0.0
210
0.0
220
0.0
230
1.0
 40
0.990913
 41
0.6857393884516134
 42
1.329221350470781
  0
ELLIPSE
  5
B9
102
{ACAD_REACTORS
330
AC
102
}
100
AcDbEntity
  8
0
  6
CONTINUOUS
 62
     7
100
AcDbEllipse
 10
49.099346
 20
48.560217
 30
0.0
 11
0.0
 21
-1.2067328258728627
 31
0.0
210
0.0
220
0.0
230
1.0
 40
0.990913
 41
4.2719897353848078
 42
6.1265873117101748
  0
ELLIPSE
  5
BA
102
{ACAD_REACTORS
330
AC
102
}
100
AcDbEntity
  8
0
  6
CONTINUOUS
 62
     7
100
AcDbEllipse
 10
48.67693
 20
49.080248
 30
0.0
 11
0.0
 21
-1.7284742119374654
 31
0.0
210
0.0
220
0.0
230
1.0
 40
0.990913
 41
0.1381850512444793
 42
1.7721679452952124
  0
ELLIPSE
  5
BB
102
{ACAD_REACTORS
330
AC
102
}
100
AcDbEntity
  8
0
  6
CONTINUOUS
 62
     7
100
AcDbEllipse
 10
42.012851
 20
48.878643
 30
0.0
 11
0.0
 21
-8.4365080938742096
 31
0.0
210
0.0
220
0.0
230
1.0
 40
0.990913
 41
1.6357174263095839
 42
2.1707275657424612
  0
ELLIPSE
  5
BC
102
{ACAD_REACTORS
330
AC
102
}
100
AcDbEntity
  8
0
  6
CONTINUOUS
 62
     7
100
AcDbEllipse
 10
41.423206
 20
47.232739
 30
0.0
 11
0.0
 21
-11.207142384776928
 31
0.0
210
0.0
220
0.0
230
1.0
 40
0.990913
 41
1.3251657761880555
 42
1.6501444136248515
  0
ELLIPSE
  5
BD
102
{ACAD_REACTORS
330
AC
102
}
100
AcDbEntity
  8
0
  6
CONTINUOUS
 62
     7
100
AcDbEllipse
 10
50.479373
 20
44.934149
 30
0.0
 11
0.0
 21
-1.7833231431500958
 31
0.0
210
0.0
220
0.0
230
1.0
 40
0.990913
 41
0.6857393884516163
 42
1.329221350470764
  0
ELLIPSE
  5
BE
102
{ACAD_REACTORS
330
AC
102
}
100
AcDbEntity
  8
0
  6
CONTINUOUS
 62
     7
100
AcDbEllipse
 10
52.680062
 20
43.039513
 30
0.0
 11
0.0
 21
-1.2067328258728565
 31
0.0
210
0.0
220
0.0
230
1.0
 40
0.990913
 41
4.2719897353847962
 42
6.1265873117101854
  0
ELLIPSE
  5
BF
102
{ACAD_REACTORS
330
AC
102
}
100
AcDbEntity
  8
0
  6
CONTINUOUS
 62
     7
100
AcDbEllipse
 10
52.257645
 20
43.559544
 30
0.0
 11
0.0
 21
-1.7284742119374616
 31
0.0
210
0.0
220
0.0
230
1.0
 40
0.990913
 41
0.1381850512444731
 42
1.7721679452952159
  0
ELLIPSE
  5
C0
102
{ACAD_REACTORS
330
AC
102
}
100
AcDbEntity
  8
0
  6
CONTINUOUS
 62
     7
100
AcDbEllipse
 10
45.593566
 20
43.357939
 30
0.0
 11
0.0
 21
-8.4365080938745081
 31
0.0
210
0.0
220
0.0
230
1.0
 40
0.990913
 41
1.6357174263095957
 42
2.1707275657424532
  0
ELLIPSE
  5
C1
102
{ACAD_REACTORS
330
AC
102
}
100
AcDbEntity
  8
0
  6
CONTINUOUS
 62
     7
100
AcDbEllipse
 10
46.197518
 20
53.656828
 30
0.0
 11
0.0
 21
-11.207118404447503
 31
0.0
210
0.0
220
0.0
230
1.0
 40
0.990913
 41
1.3251654254103913
 42
1.6501447644025158
  0
ELLIPSE
  5
C2
102
{ACAD_REACTORS
330
AC
102
}
100
AcDbEntity
  8
0
  6
CONTINUOUS
 62
     7
100
AcDbEllipse
 10
55.253661
 20
51.35824
 30
0.0
 11
0.0
 21
-1.7833231431500032
 31
0.0
210
0.0
220
0.0
230
1.0
 40
0.990913
 41
0.6857393884516042
 42
1.3292213504707866
  0
ELLIPSE
  5
C3
102
{ACAD_REACTORS
330
AC
102
}
100
AcDbEntity
  8
0
  6
CONTINUOUS
 62
     7
100
AcDbEllipse
 10
57.45435
 20
49.463604
 30
0.0
 11
0.0
 21
-1.2067328258728605
 31
0.0
210
0.0
220
0.0
230
1.0
 40
0.990913
 41
4.2719897353848282
 42
6.1265873117101677
  0
ELLIPSE
  5
C4
102
{ACAD_REACTORS
330
AC
102
}
100
AcDbEntity
  8
0
  6
CONTINUOUS
 62
     7
100
AcDbEllipse
 10
57.031933
 20
49.983635
 30
0.0
 11
0.0
 21
-1.7284742119374286
 31
0.0
210
0.0
220
0.0
230
1.0
 40
0.990913
 41
0.1381850512444625
 42
1.7721679452952228
  0
ELLIPSE
  5
C5
102
{ACAD_REACTORS
330
AC
102
}
100
AcDbEntity
  8
0
  6
CONTINUOUS
 62
     7
100
AcDbEllipse
 10
50.367854
 20
49.782031
 30
0.0
 11
0.0
 21
-8.4365080938741634
 31
0.0
210
0.0
220
0.0
230
1.0
 40
0.990913
 41
1.6357174263095835
 42
2.170727565742463
  0
ELLIPSE
  5
C6
102
{ACAD_REACTORS
330
AC
102
}
100
AcDbEntity
  8
0
  6
CONTINUOUS
 62
     7
100
AcDbEllipse
 10
50.971782
 20
47.232739
 30
0.0
 11
0.0
 21
-11.207142384778036
 31
0.0
210
0.0
220
0.0
230
1.0
 40
0.990913
 41
1.3251657761880744
 42
1.650144413624838
  0
ELLIPSE
  5
C7
102
{ACAD_REACTORS
330
AC
102
}
100
AcDbEntity
  8
0
  6
CONTINUOUS
 62
     7
100
AcDbEllipse
 10
60.027949
 20
44.934149
 30
0.0
 11
0.0
 21
-1.7833231431503664
 31
0.0
210
0.0
220
0.0
230
1.0
 40
0.990913
 41
0.6857393884516511
 42
1.3292213504707011
  0
ELLIPSE
  5
C8
102
{ACAD_REACTORS
330
AC
102
}
100
AcDbEntity
  8
0
  6
CONTINUOUS
 62
     7
100
AcDbEllipse
 10
62.228638
 20
43.039513
 30
0.0
 11
0.0
 21
-1.2067328258728738
 31
0.0
210
0.0
220
0.0
230
1.0
 40
0.990913
 41
4.2719897353848211
 42
6.1265873117101721
  0
ELLIPSE
  5
C9
102
{ACAD_REACTORS
330
AC
102
}
100
AcDbEntity
  8
0
  6
CONTINUOUS
 62
     7
100
AcDbEllipse
 10
61.806221
 20
43.559544
 30
0.0
 11
0.0
 21
-1.7284742119374286
 31
0.0
210
0.0
220
0.0
230
1.0
 40
0.990913
 41
0.1381850512444625
 42
1.7721679452952328
  0
ELLIPSE
  5
CA
102
{ACAD_REACTORS
330
AC
102
}
100
AcDbEntity
  8
0
  6
CONTINUOUS
 62
     7
100
AcDbEllipse
 10
55.142142
 20
43.357939
 30
0.0
 11
0.0
 21
-8.4365080938744583
 31
0.0
210
0.0
220
0.0
230
1.0
 40
0.990913
 41
1.6357174263095917
 42
2.1707275657424518
  0
ELLIPSE
  5
CB
102
{ACAD_REACTORS
330
AC
102
}
100
AcDbEntity
  8
0
  6
CONTINUOUS
 62
     7
100
AcDbEllipse
 10
46.197494
 20
40.005637
 30
0.0
 11
0.0
 21
-11.207142384776485
 31
0.0
210
0.0
220
0.0
230
1.0
 40
0.990913
 41
1.3251657761880491
 42
1.6501444136248578
  0
ELLIPSE
  5
CC
102
{ACAD_REACTORS
330
AC
102
}
100
AcDbEntity
  8
0
  6
CONTINUOUS
 62
     7
100
AcDbEllipse
 10
55.253661
 20
37.707047
 30
0.0
 11
0.0
 21
-1.7833231431501115
 31
0.0
210
0.0
220
0.0
230
1.0
 40
0.990913
 41
0.6857393884516189
 42
1.3292213504707611
  0
ELLIPSE
  5
CD
102
{ACAD_REACTORS
330
AC
102
}
100
AcDbEntity
  8
0
  6
CONTINUOUS
 62
     7
100
AcDbEllipse
 10
57.45435
 20
35.812411
 30
0.0
 11
0.0
 21
-1.2067328258728682
 31
0.0
210
0.0
220
0.0
230
1.0
 40
0.990913
 41
4.2719897353848033
 42
6.1265873117101748
  0
ELLIPSE
  5
CE
102
{ACAD_REACTORS
330
AC
102
}
100
AcDbEntity
  8
0
  6
CONTINUOUS
 62
     7
100
AcDbEllipse
 10
57.031933
 20
36.332442
 30
0.0
 11
0.0
 21
-1.7284742119374885
 31
0.0
210
0.0
220
0.0
230
1.0
 40
0.990913
 41
0.1381850512444924
 42
1.7721679452952015
  0
ELLIPSE
  5
CF
102
{ACAD_REACTORS
330
AC
102
}
100
AcDbEntity
  8
0
  6
CONTINUOUS
 62
     7
100
AcDbEllipse
 10
50.367854
 20
36.130838
 30
0.0
 11
0.0
 21
-8.4365080938741634
 31
0.0
210
0.0
220
0.0
230
1.0
 40
0.990913
 41
1.6357174263095831
 42
2.170727565742463
  0
ELLIPSE
  5
D0
102
{ACAD_REACTORS
330
AC
102
}
100
AcDbEntity
  8
0
  6
CONTINUOUS
 62
     7
100
AcDbEllipse
 10
37.842491
 20
40.005637
 30
0.0
 11
0.0
 21
-11.207142384776699
 31
0.0
210
0.0
220
0.0
230
1.0
 40
0.990913
 41
1.3251657761880522
 42
1.6501444136248546
  0
ELLIPSE
  5
D1
102
{ACAD_REACTORS
330
AC
102
}
100
AcDbEntity
  8
0
  6
CONTINUOUS
 62
     7
100
AcDbEllipse
 10
46.898657
 20
37.707047
 30
0.0
 11
0.0
 21
-1.7833231431501473
 31
0.0
210
0.0
220
0.0
230
1.0
 40
0.990913
 41
0.6857393884516239
 42
1.3292213504707524
  0
ELLIPSE
  5
D2
102
{ACAD_REACTORS
330
AC
102
}
100
AcDbEntity
  8
0
  6
CONTINUOUS
 62
     7
100
AcDbEllipse
 10
49.099346
 20
35.812411
 30
0.0
 11
0.0
 21
-1.2067328258728758
 31
0.0
210
0.0
220
0.0
230
1.0
 40
0.990913
 41
4.2719897353848175
 42
6.1265873117101695
  0
ELLIPSE
  5
D3
102
{ACAD_REACTORS
330
AC
102
}
100
AcDbEntity
  8
0
  6
CONTINUOUS
 62
     7
100
AcDbEllipse
 10
48.67693
 20
36.332442
 30
0.0
 11
0.0
 21
-1.7284742119374636
 31
0.0
210
0.0
220
0.0
230
1.0
 40
0.990913
 41
0.1381850512444747
 42
1.7721679452952137
  0
ELLIPSE
  5
D4
102
{ACAD_REACTORS
330
AC
102
}
100
AcDbEntity
  8
0
  6
CONTINUOUS
 62
     7
100
AcDbEllipse
 10
42.012851
 20
36.130838
 30
0.0
 11
0.0
 21
-8.4365080938743802
 31
0.0
210
0.0
220
0.0
230
1.0
 40
0.990913
 41
1.6357174263095917
 42
2.1707275657424576
  0
ENDBLK
  5
D5
100
AcDbEntity
  8
0
100
AcDbBlockEnd
  0
BLOCK
  5
D7
100
AcDbEntity
  8
0
100
AcDbBlockBegin
  2
SONNE
 70
     0
 10
0.0
 20
0.0
 30
0.0
  3
SONNE
  1

  0
ELLIPSE
  5
D8
102
{ACAD_REACTORS
330
F4
102
}
100
AcDbEntity
  8
0
  6
CONTINUOUS
 62
     7
100
AcDbEllipse
 10
50.773315
 20
75.980743
 30
0.0
 11
-19.773330283598309
 21
-0.5181569175271219
 31
0.0
210
0.0
220
0.0
230
1.0
 40
0.675882
 41
0.4671656399978617
 42
1.1019028117787726
  0
ELLIPSE
  5
D9
102
{ACAD_REACTORS
330
F4
102
}
100
AcDbEntity
  8
0
  6
CONTINUOUS
 62
     7
100
AcDbEllipse
 10
27.063013
 20
24.505594
 30
0.0
 11
-8.2050815084442466
 21
-64.675283008621491
 31
0.0
210
0.0
220
0.0
230
1.0
 40
0.197357
 41
2.2490586138939559
 42
2.4619001008818078
  0
ELLIPSE
  5
DA
102
{ACAD_REACTORS
330
F4
102
}
100
AcDbEntity
  8
0
  6
CONTINUOUS
 62
     7
100
AcDbEllipse
 10
56.231933
 20
75.916681
 30
0.0
 11
14.615928643505503
 21
-4.5231657242512471
 31
0.0
210
0.0
220
0.0
230
1.0
 40
0.88288
 41
-2.6482903200865118
 42
-2.0117630223496685
  0
ELLIPSE
  5
DB
102
{ACAD_REACTORS
330
F4
102
}
100
AcDbEntity
  8
0
  6
CONTINUOUS
 62
     7
100
AcDbEllipse
 10
48.719902
 20
74.879664
 30
0.0
 11
-2.3369329535047632
 21
-8.7023208719145444
 31
0.0
210
0.0
220
0.0
230
1.0
 40
0.108084
 41
-0.0007623115496549
 42
1.5700340152456904
  0
ELLIPSE
  5
DC
102
{ACAD_REACTORS
330
F4
102
}
100
AcDbEntity
  8
0
  6
CONTINUOUS
 62
     7
100
AcDbEllipse
 10
51.778759
 20
74.913544
 30
0.0
 11
1.1543439217829394
 21
-8.5978775820129432
 31
0.0
210
0.0
220
0.0
230
1.0
 40
0.246709
 41
-1.5698294484982107
 42
0.0009668782964909
  0
ELLIPSE
  5
DD
102
{ACAD_REACTORS
330
F4
102
}
100
AcDbEntity
  8
0
  6
CONTINUOUS
 62
     7
100
AcDbEllipse
 10
31.276516
 20
100.936074
 30
0.0
 11
-1.1713109306983414
 21
-43.635670867033376
 31
0.0
210
0.0
220
0.0
230
1.0
 40
0.825797
 41
0.6769206293807731
 42
0.901307572160351
  0
LINE
  5
DE
102
{ACAD_REACTORS
330
F4
102
}
100
AcDbEntity
  8
0
  6
CONTINUOUS
 62
     7
100
AcDbLine
 10
58.805461
 20
73.097953
 30
0.0
 11
57.849829
 21
63.824597
 31
0.0
  0
ELLIPSE
  5
DF
102
{ACAD_REACTORS
330
F4
102
}
100
AcDbEntity
  8
0
  6
CONTINUOUS
 62
     7
100
AcDbEllipse
 10
48.81263
 20
78.659051
 30
0.0
 11
20.592847361152248
 21
-2.9719664378094248
 31
0.0
210
0.0
220
0.0
230
1.0
 40
0.759975
 41
-1.0101425357068747
 42
-0.5473272223255488
  0
ELLIPSE
  5
E0
102
{ACAD_REACTORS
330
F4
102
}
100
AcDbEntity
  8
0
  6
CONTINUOUS
 62
     7
100
AcDbEllipse
 10
62.938064
 20
50.625404
 30
0.0
 11
-5.3423497026589493
 21
-18.632445437756406
 31
0.0
210
0.0
220
0.0
230
1.0
 40
0.296533
 41
-2.6747203461062052
 42
-2.0424712731620742
  0
ELLIPSE
  5
E1
102
{ACAD_REACTORS
330
F4
102
}
100
AcDbEntity
  8
0
  6
CONTINUOUS
 62
     7
100
AcDbEllipse
 10
67.984251
 20
61.104132
 30
0.0
 11
-7.5445648045537723
 21
-0.6784337696762225
 31
0.0
210
0.0
220
0.0
230
1.0
 40
0.188244
 41
-0.0536256178322386
 42
1.7314815112237258
  0
ELLIPSE
  5
E2
102
{ACAD_REACTORS
330
F4
102
}
100
AcDbEntity
  8
0
  6
CONTINUOUS
 62
     7
100
AcDbEllipse
 10
91.09309
 20
54.490877
 30
0.0
 11
-34.191021880179591
 21
-7.0291542786510384
 31
0.0
210
0.0
220
0.0
230
1.0
 40
0.337577
 41
-0.95161787062112
 42
-0.6232456303257897
  0
ELLIPSE
  5
E3
102
{ACAD_REACTORS
330
F4
102
}
100
AcDbEntity
  8
0
  6
CONTINUOUS
 62
     7
100
AcDbEllipse
 10
73.424751
 20
57.355241
 30
0.0
 11
-12.0018474333807
 21
-0.0835515406992143
 31
0.0
210
0.0
220
0.0
230
1.0
 40
0.50692
 41
0.2926455720330392
 42
1.2778955777377901
  0
ELLIPSE
  5
E4
102
{ACAD_REACTORS
330
F4
102
}
100
AcDbEntity
  8
0
  6
CONTINUOUS
 62
     7
100
AcDbEllipse
 10
70.172014
 20
50.097261
 30
0.0
 11
-9.7282412014448081
 21
-1.2214593857578915
 31
0.0
210
0.0
220
0.0
230
1.0
 40
0.144773
 41
-1.571291920651352
 42
-0.0004955938568062
  0
ELLIPSE
  5
E5
102
{ACAD_REACTORS
330
F4
102
}
100
AcDbEntity
  8
0
  6
CONTINUOUS
 62
     7
100
AcDbEllipse
 10
83.823092
 20
48.659327
 30
0.0
 11
24.566676409479793
 21
-9.3425281299340845
 31
0.0
210
0.0
220
0.0
230
1.0
 40
0.559609
 41
-2.5577766575974978
 42
-2.147738921620439
  0
ELLIPSE
  5
E6
102
{ACAD_REACTORS
330
F4
102
}
100
AcDbEntity
  8
0
  6
CONTINUOUS
 62
     7
100
AcDbEllipse
 10
72.260793
 20
42.935716
 30
0.0
 11
15.060497378433963
 21
-2.6521327634583689
 31
0.0
210
0.0
220
0.0
230
1.0
 40
0.125911
 41
-2.823854535000752
 42
-1.9742505997053053
  0
ELLIPSE
  5
E7
102
{ACAD_REACTORS
330
F4
102
}
100
AcDbEntity
  8
0
  6
CONTINUOUS
 62
     7
100
AcDbEllipse
 10
173.146712
 20
64.845602
 30
0.0
 11
-79.13308065842493
 21
-103.83464826505289
 31
0.0
210
0.0
220
0.0
230
1.0
 40
0.808714
 41
-0.8538842781932078
 42
-0.7762358286639093
  0
ELLIPSE
  5
E8
102
{ACAD_REACTORS
330
F4
102
}
100
AcDbEntity
  8
0
  6
CONTINUOUS
 62
     7
100
AcDbEllipse
 10
41.644822
 20
40.016314
 30
0.0
 11
16.127544262897757
 21
-8.3551368751193689
 31
0.0
210
0.0
220
0.0
230
1.0
 40
0.454425
 41
0.4410502517159098
 42
1.1284668315441322
  0
ELLIPSE
  5
E9
102
{ACAD_REACTORS
330
F4
102
}
100
AcDbEntity
  8
0
  6
CONTINUOUS
 62
     7
100
AcDbEllipse
 10
51.48251
 20
34.511495
 30
0.0
 11
-0.496354251311032
 21
-8.5518947719553733
 31
0.0
210
0.0
220
0.0
230
1.0
 40
0.213284
 41
-3.1419533714203003
 42
-1.5711570446252656
  0
ELLIPSE
  5
EA
102
{ACAD_REACTORS
330
F4
102
}
100
AcDbEntity
  8
0
  6
CONTINUOUS
 62
     7
100
AcDbEllipse
 10
48.506105
 20
34.772032
 30
0.0
 11
2.0238577778085931
 21
-9.1958791735162517
 31
0.0
210
0.0
220
0.0
230
1.0
 40
0.11619
 41
-4.7544346208179782
 42
-3.0375825176330107
  0
ELLIPSE
  5
EB
102
{ACAD_REACTORS
330
F4
102
}
100
AcDbEntity
  8
0
  6
CONTINUOUS
 62
     7
100
AcDbEllipse
 10
49.161887
 20
41.236502
 30
0.0
 11
-9.1861198155827619
 21
-4.638147793095281
 31
0.0
210
0.0
220
0.0
230
1.0
 40
0.355026
 41
-1.4457353493882172
 42
-0.1782757070564653
  0
ELLIPSE
  5
EC
102
{ACAD_REACTORS
330
F4
102
}
100
AcDbEntity
  8
0
  6
CONTINUOUS
 62
     7
100
AcDbEllipse
 10
24.709855
 20
71.508457
 30
0.0
 11
6.6210429911087294
 21
-45.327770573892217
 31
0.0
210
0.0
220
0.0
230
1.0
 40
0.354676
 41
0.6637203870860448
 42
0.910321174687514
  0
ELLIPSE
  5
ED
102
{ACAD_REACTORS
330
F4
102
}
100
AcDbEntity
  8
0
  6
CONTINUOUS
 62
     7
100
AcDbEllipse
 10
37.350808
 20
44.380689
 30
0.0
 11
-4.432987668989961
 21
-1.348368381962447
 31
0.0
210
0.0
220
0.0
230
1.0
 40
0.042146
 41
-3.534611215937407
 42
0.3923796010499494
  0
ELLIPSE
  5
EE
102
{ACAD_REACTORS
330
F4
102
}
100
AcDbEntity
  8
0
  6
CONTINUOUS
 62
     7
100
AcDbEllipse
 10
15.273148
 20
47.969483
 30
0.0
 11
-23.011842898895978
 21
-10.815626952605482
 31
0.0
210
0.0
220
0.0
230
1.0
 40
0.5737
 41
2.1636400378995275
 42
2.6001133828352829
  0
ELLIPSE
  5
EF
102
{ACAD_REACTORS
330
F4
102
}
100
AcDbEntity
  8
0
  6
CONTINUOUS
 62
     7
100
AcDbEllipse
 10
26.051445
 20
48.322658
 30
0.0
 11
-12.290944893423084
 21
-1.7929770795433428
 31
0.0
210
0.0
220
0.0
230
1.0
 40
0.209987
 41
-3.0122325531247469
 42
-1.9283168970255433
  0
ELLIPSE
  5
F0
102
{ACAD_REACTORS
330
F4
102
}
100
AcDbEntity
  8
0
  6
CONTINUOUS
 62
     7
100
AcDbEllipse
 10
29.741607
 20
52.151975
 30
0.0
 11
-7.8261757801424565
 21
-3.3140036676321332
 31
0.0
210
0.0
220
0.0
230
1.0
 40
0.096817
 41
-4.7203684605105227
 42
-3.0528321575650335
  0
ELLIPSE
  5
F1
102
{ACAD_REACTORS
330
F4
102
}
100
AcDbEntity
  8
0
  6
CONTINUOUS
 62
     7
100
AcDbEllipse
 10
22.920217
 20
47.161357
 30
0.0
 11
-17.3787697000399
 21
-1.8272832800034338
 31
0.0
210
0.0
220
0.0
230
1.0
 40
0.818641
 41
-2.6472340774835135
 42
-2.0746022193968932
  0
ELLIPSE
  5
F2
102
{ACAD_REACTORS
330
F4
102
}
100
AcDbEntity
  8
0
  6
CONTINUOUS
 62
     7
100
AcDbEllipse
 10
32.727842
 20
69.032724
 30
0.0
 11
20.314678579350449
 21
-0.9228190073316536
 31
0.0
210
0.0
220
0.0
230
1.0
 40
0.42795
 41
-1.6860192230403681
 42
-1.2440686071142644
  0
ELLIPSE
  5
F3
102
{ACAD_REACTORS
330
F4
102
}
100
AcDbEntity
  8
0
  6
CONTINUOUS
 62
     7
100
AcDbEllipse
 10
14.181286
 20
69.664259
 30
0.0
 11
24.679519323085128
 21
-18.761295522801927
 31
0.0
210
0.0
220
0.0
230
1.0
 40
0.423739
 41
0.6216308051948951
 42
1.0546054896226196
  0
HATCH
  5
F4
100
AcDbEntity
  8
0
 62
     2
100
AcDbHatch
 10
0.0
 20
0.0
 30
0.0
210
0.0
220
0.0
230
1.0
  2
SOLID
 70
     1
 71
     1
 91
        1
 92
        1
 93
       28
 72
     3
 10
50.773314884136198
 20
75.980743221321248
 11
-19.773330283598309
 21
-0.5181569175271219
 40
0.675882
 50
26.76662
 51
63.134381
 73
     1
 72
     3
 10
27.063013028886093
 20
24.505593749233874
 11
-8.2050815084442466
 21
-64.675283008621491
 40
0.197357
 50
128.861566
 51
141.056485
 73
     1
 72
     3
 10
56.231933369390632
 20
75.916681434013242
 11
14.615928643505503
 21
-4.5231657242512471
 40
0.88288
 50
208.264142
 51
244.734469
 73
     1
 72
     3
 10
48.719901851401531
 20
74.879663664662559
 11
-2.3369329535047632
 21
-8.7023208719145444
 40
0.108084
 50
359.956323
 51
89.956323
 73
     1
 72
     3
 10
51.778759285284252
 20
74.913544383382927
 11
1.1543439217829394
 21
-8.5978775820129432
 40
0.246709
 50
270.055398
 51
0.055398
 73
     1
 72
     3
 10
31.276515823036501
 20
100.93607448728307
 11
-1.1713109306983414
 21
-43.635670867033376
 40
0.825797
 50
38.784695
 51
51.64112
 73
     1
 72
     1
 10
58.805460750853221
 20
73.097953094962989
 11
57.849829351535845
 21
63.824596693578954
 72
     3
 10
48.812630340119689
 20
78.659050815998839
 11
20.592847361152248
 21
-2.9719664378094248
 40
0.759975
 50
302.123096
 51
328.64046
 73
     1
 72
     3
 10
62.938063979816363
 20
50.625404428803904
 11
-5.3423497026589493
 21
-18.632445437756406
 40
0.296533
 50
206.749813
 51
242.975016
 73
     1
 72
     3
 10
67.984250729362287
 20
61.104132350005905
 11
-7.5445648045537723
 21
-0.6784337696762225
 40
0.188244
 50
356.927478
 51
99.206583
 73
     1
 72
     3
 10
91.093090062071525
 20
54.490877421105964
 11
-34.191021880179591
 21
-7.0291542786510384
 40
0.337577
 50
305.476312
 51
324.290656
 73
     1
 72
     3
 10
73.424751040253966
 20
57.355240860995856
 11
-12.0018474333807
 21
-0.0835515406992143
 40
0.50692
 50
16.767356
 51
73.218023
 73
     1
 72
     3
 10
70.172013651879567
 20
50.097261053440498
 11
-9.7282412014448081
 21
-1.2214593857578915
 40
0.144773
 50
269.971605
 51
359.971605
 73
     1
 72
     3
 10
83.82309198500009
 20
48.659327061469213
 11
24.566676409479793
 21
-9.3425281299340845
 40
0.559609
 50
213.450193
 51
236.943624
 73
     1
 72
     3
 10
72.260793154826047
 20
42.935715858564528
 11
15.060497378433963
 21
-2.6521327634583689
 40
0.125911
 50
113.116227
 51
161.794947
 73
     0
 72
     3
 10
173.1467118793114
 20
64.845601890042929
 11
-79.13308065842493
 21
-103.83464826505289
 40
0.808714
 50
311.076035
 51
315.524963
 73
     1
 72
     3
 10
41.644822316912723
 20
40.016313779144632
 11
16.127544262897757
 21
-8.3551368751193689
 40
0.454425
 50
25.270318
 51
64.656387
 73
     1
 72
     3
 10
51.482510020982573
 20
34.511494990520497
 11
-0.496354251311032
 21
-8.5518947719553733
 40
0.213284
 50
179.979332
 51
269.979332
 73
     1
 72
     3
 10
48.506104826882719
 20
34.772032067594509
 11
2.0238577778085931
 21
-9.1958791735162517
 40
0.11619
 50
87.590962
 51
185.959342
 73
     1
 72
     3
 10
49.16188722720846
 20
41.236502282061672
 11
-9.1861198155827619
 21
-4.638147793095281
 40
0.355026
 50
277.165466
 51
349.785554
 73
     1
 72
     3
 10
24.709854891002781
 20
71.508457286712101
 11
6.6210429911087294
 21
-45.327770573892217
 40
0.354676
 50
38.028377
 51
52.157561
 73
     1
 72
     3
 10
37.350808179399877
 20
44.380689005407987
 11
-4.432987668989961
 21
-1.348368381962447
 40
0.042146
 50
157.481695
 51
22.481695
 73
     1
 72
     3
 10
15.273148108853462
 20
47.969482521549345
 11
-23.011842898895978
 21
-10.815626952605482
 40
0.5737
 50
123.967443
 51
148.975523
 73
     1
 72
     3
 10
26.051445117359012
 20
48.322657657918761
 11
-12.290944893423084
 21
-1.7929770795433428
 40
0.209987
 50
187.411788
 51
249.51558
 73
     1
 72
     3
 10
29.741606932356504
 20
52.151974687741863
 11
-7.8261757801424565
 21
-3.3140036676321332
 40
0.096817
 50
89.542809
 51
185.085602
 73
     1
 72
     3
 10
22.920217082829456
 20
47.161357194441194
 11
-17.3787697000399
 21
-1.8272832800034338
 40
0.818641
 50
208.32466
 51
241.134049
 73
     1
 72
     3
 10
32.72784197586072
 20
69.03272398416533
 11
20.314678579350449
 21
-0.9228190073316536
 40
0.42795
 50
263.398214
 51
288.720119
 73
     1
 72
     3
 10
14.181285504758225
 20
69.664258797481111
 11
24.679519323085128
 21
-18.761295522801927
 40
0.423739
 50
35.616822
 51
60.424444
 73
     1
 97
       28
330
D8
330
D9
330
DA
330
DB
330
DC
330
DD
330
DE
330
DF
330
E0
330
E1
330
E2
330
E3
330
E4
330
E5
330
E6
330
E7
330
E8
330
E9
330
EA
330
EB
330
EC
330
ED
330
EE
330
EF
330
F0
330
F1
330
F2
330
F3
 75
     0
 76
     1
 98
        0
  0
ELLIPSE
  5
F5
102
{ACAD_REACTORS
330
F7
102
}
100
AcDbEntity
  8
0
  6
CONTINUOUS
 62
     7
100
AcDbEllipse
 10
49.658703
 20
54.689649
 30
0.0
 11
11.467576791808877
 21
0.0
 31
0.0
210
0.0
220
0.0
230
1.0
 40
0.941424
 41
-0.0000000000000001
 42
3.1415926535898073
  0
ELLIPSE
  5
F6
102
{ACAD_REACTORS
330
F7
102
}
100
AcDbEntity
  8
0
  6
CONTINUOUS
 62
     7
100
AcDbEllipse
 10
49.658703
 20
54.689649
 30
0.0
 11
11.467576791808877
 21
0.0
 31
0.0
210
0.0
220
0.0
230
1.0
 40
0.941424
 41
3.1415926535897931
 42
6.2831853071796004
  0
HATCH
  5
F7
100
AcDbEntity
  8
0
 62
     2
100
AcDbHatch
 10
0.0
 20
0.0
 30
0.0
210
0.0
220
0.0
230
1.0
  2
SOLID
 70
     1
 71
     1
 91
        1
 92
        1
 93
        2
 72
     3
 10
49.658703071672363
 20
54.689648596693154
 11
11.467576791808877
 21
0.0
 40
0.941424
 50
180.0
 51
0.0
 73
     0
 72
     3
 10
49.658703071672363
 20
54.689648596693154
 11
11.467576791808877
 21
0.0
 40
0.941424
 50
360.0
 51
540.0
 73
     0
 97
        2
330
F5
330
F6
 75
     0
 76
     1
 98
        0
  0
ENDBLK
  5
F8
100
AcDbEntity
  8
0
100
AcDbBlockEnd
  0
BLOCK
  5
FA
100
AcDbEntity
  8
0
100
AcDbBlockBegin
  2
PARK
 70
     0
 10
0.0
 20
0.0
 30
0.0
  3
PARK
  1

  0
LWPOLYLINE
  5
FB
102
{ACAD_REACTORS
330
FD
102
}
100
AcDbEntity
  8
0
  6
CONTINUOUS
 62
     7
100
AcDbPolyline
 90
        8
 70
     1
 10
65.999999
 20
34.451111
 42
0.414214
 10
69.999999
 20
38.451112
 10
69.999999
 20
70.451111
 42
0.414214
 10
65.999999
 20
74.451111
 10
34.0
 20
74.451111
 42
0.414214
 10
30.0
 20
70.451111
 10
30.0
 20
38.451112
 42
0.414214
 10
34.0
 20
34.451111
  0
LWPOLYLINE
  5
FC
102
{ACAD_REACTORS
330
FD
102
}
100
AcDbEntity
  8
0
  6
CONTINUOUS
 62
     7
100
AcDbPolyline
 90
        4
 70
     1
 10
46.795254
 20
49.032724
 10
65.222656
 20
49.032724
 10
65.222656
 20
49.872068
 10
46.795254
 20
49.872068
  0
HATCH
  5
FD
100
AcDbEntity
  8
0
 62
     7
100
AcDbHatch
 10
0.0
 20
0.0
 30
0.0
210
0.0
220
0.0
230
1.0
  2
SOLID
 70
     1
 71
     1
 91
        2
 92
        3
 72
     0
 73
     1
 93
        4
 10
46.795253906249997
 20
49.032724210325284
 10
65.22265625
 20
49.032724210325284
 10
65.22265625
 20
49.872067588301469
 10
46.795253906249997
 20
49.872067588301469
 97
        2
330
FB
330
FC
 92
        3
 72
     0
 73
     1
 93
        4
 10
50.145690696022726
 20
52.390097722230038
 10
61.872219460227264
 20
52.390097722230038
 10
61.872219460227264
 20
53.229441100206223
 10
50.145690696022726
 20
53.229441100206223
 97
        1
330
FE
 75
     0
 76
     1
 98
        0
  0
LWPOLYLINE
  5
FE
102
{ACAD_REACTORS
330
FD
102
}
100
AcDbEntity
  8
0
  6
CONTINUOUS
 62
     7
100
AcDbPolyline
 90
        4
 70
     1
 10
50.145691
 20
52.390098
 10
61.872219
 20
52.390098
 10
61.872219
 20
53.229441
 10
50.145691
 20
53.229441
  0
LWPOLYLINE
  5
FF
102
{ACAD_REACTORS
330
100
102
}
100
AcDbEntity
  8
0
  6
CONTINUOUS
 62
     7
100
AcDbPolyline
 90
        4
 70
     1
 10
51.820909
 20
52.390098
 10
53.496127
 20
52.390098
 10
50.145691
 20
44.836007
 10
48.470472
 20
44.836007
  0
HATCH
  5
100
100
AcDbEntity
  8
0
 62
     7
100
AcDbHatch
 10
0.0
 20
0.0
 30
0.0
210
0.0
220
0.0
230
1.0
  2
SOLID
 70
     1
 71
     1
 91
        2
 92
        3
 72
     0
 73
     1
 93
        4
 10
51.820909090909083
 20
52.390097722230038
 10
53.496127485795448
 20
52.390097722230038
 10
50.145690696022726
 20
44.836007320444331
 10
48.470472301136361
 20
44.836007320444331
 97
        1
330
FF
 92
        3
 72
     0
 73
     1
 93
        4
 10
60.197001065340899
 20
52.390097722230038
 10
58.521782670454535
 20
52.390097722230038
 10
61.872219460227264
 20
44.836007320444331
 10
63.547437855113628
 20
44.836007320444331
 97
        1
330
101
 75
     0
 76
     1
 98
        0
  0
LWPOLYLINE
  5
101
102
{ACAD_REACTORS
330
100
102
}
100
AcDbEntity
  8
0
  6
CONTINUOUS
 62
     7
100
AcDbPolyline
 90
        4
 70
     1
 10
60.197001
 20
52.390098
 10
58.521783
 20
52.390098
 10
61.872219
 20
44.836007
 10
63.547438
 20
44.836007
  0
LWPOLYLINE
  5
102
102
{ACAD_REACTORS
330
103
102
}
100
AcDbEntity
  8
0
  6
CONTINUOUS
 62
     7
100
AcDbPolyline
 90
       15
 70
     1
 10
39.905008
 20
66.201111
 10
37.213005
 20
61.572006
 10
38.054256
 20
61.750048
 10
35.194002
 20
55.874644
 10
36.540004
 20
56.23073
 10
33.175
 20
48.752943
 10
38.559006
 20
49.129473
 10
38.559006
 20
44.836007
 10
40.914509
 20
44.836007
 10
40.914509
 20
49.129473
 10
46.635016
 20
48.752943
 10
43.270012
 20
56.586815
 10
44.616013
 20
56.23073
 10
41.75576
 20
61.750048
 10
42.597011
 20
61.572006
  0
HATCH
  5
103
100
AcDbEntity
  8
0
 62
     7
100
AcDbHatch
 10
0.0
 20
0.0
 30
0.0
210
0.0
220
0.0
230
1.0
  2
SOLID
 70
     1
 71
     1
 91
        1
 92
        3
 72
     0
 73
     1
 93
       15
 10
39.905007812500003
 20
66.20111148711095
 10
37.213004687499996
 20
61.572005584333191
 10
38.054255664062502
 20
61.7500481190554
 10
35.19400234375
 20
55.874644473222091
 10
36.54000390625
 20
56.230729542666538
 10
33.175000000000004
 20
48.752943084333211
 10
38.559006250000003
 20
49.129473229535229
 10
38.559006250000003
 20
44.836007320444331
 10
40.914508984375004
 20
44.836007320444331
 10
40.914508984375004
 20
49.129473229535222
 10
46.635015624999994
 20
48.752943084333211
 10
43.270011718749998
 20
56.586814612110977
 10
44.616013281250005
 20
56.230729542666538
 10
41.755759960937503
 20
61.7500481190554
 10
42.597010937500002
 20
61.572005584333191
 97
        1
330
102
 75
     0
 76
     1
 98
        0
  0
ENDBLK
  5
104
100
AcDbEntity
  8
0
100
AcDbBlockEnd
  0
BLOCK
  5
106
100
AcDbEntity
  8
0
100
AcDbBlockBegin
  2
QUADR__FELD
 70
     0
 10
0.0
 20
0.0
 30
0.0
  3
QUADR__FELD
  1

  0
LWPOLYLINE
  5
107
102
{ACAD_REACTORS
330
10C
102
}
100
AcDbEntity
  8
0
  6
CONTINUOUS
 62
     7
100
AcDbPolyline
 90
        8
 70
     1
 10
65.999999
 20
34.451111
 42
0.414214
 10
69.999999
 20
38.451112
 10
69.999999
 20
70.451111
 42
0.414214
 10
65.999999
 20
74.451111
 10
34.0
 20
74.451111
 42
0.414214
 10
30.0
 20
70.451111
 10
30.0
 20
38.451112
 42
0.414214
 10
34.0
 20
34.451111
  0
ENDBLK
  5
108
100
AcDbEntity
  8
0
100
AcDbBlockEnd
  0
BLOCK
  5
10A
100
AcDbEntity
  8
0
100
AcDbBlockBegin
  2
RADIOAKTIV
 70
     0
 10
0.0
 20
0.0
 30
0.0
  3
RADIOAKTIV
  1

  0
LWPOLYLINE
  5
10B
102
{ACAD_REACTORS
330
10C
102
}
100
AcDbEntity
  8
0
  6
CONTINUOUS
 62
     7
100
AcDbPolyline
 90
        8
 70
     1
 10
65.999999
 20
34.451111
 42
0.414214
 10
69.999999
 20
38.451112
 10
69.999999
 20
70.451111
 42
0.414214
 10
65.999999
 20
74.451111
 10
34.0
 20
74.451111
 42
0.414214
 10
30.0
 20
70.451111
 10
30.0
 20
38.451112
 42
0.414214
 10
34.0
 20
34.451111
  0
HATCH
  5
10C
100
AcDbEntity
  8
0
 62
     2
100
AcDbHatch
 10
0.0
 20
0.0
 30
0.0
210
0.0
220
0.0
230
1.0
  2
SOLID
 70
     1
 71
     1
 91
        1
 92
        3
 72
     1
 73
     1
 93
        8
 10
65.999999119999998
 20
34.451111487111014
 42
0.4142135491182574
 10
69.999999247999995
 20
38.45111161511101
 42
0.0
 10
69.999999247999995
 20
70.451110607111005
 42
0.4142135491182588
 10
65.999999119999998
 20
74.451110735111001
 42
0.0
 10
34.000000127999996
 20
74.451110735111016
 42
0.4142135495988454
 10
30.0
 20
70.451110607111005
 42
0.0
 10
30.0
 20
38.451111615111017
 42
0.4142135491182578
 10
34.000000128000003
 20
34.451111487111014
 42
0.0
 97
        2
330
107
330
10B
 75
     0
 76
     1
 98
        0
  0
LWPOLYLINE
  5
10D
102
{ACAD_REACTORS
330
10E
102
}
100
AcDbEntity
  8
0
  6
CONTINUOUS
 62
     7
100
AcDbPolyline
 90
        4
 70
     1
 10
46.8
 20
61.065472
 10
42.0
 20
69.379314
 42
0.267949
 10
33.999999
 20
55.522909
 10
43.600001
 20
55.522909
 42
-0.267949
  0
HATCH
  5
10E
100
AcDbEntity
  8
0
 62
     7
100
AcDbHatch
 10
0.0
 20
0.0
 30
0.0
210
0.0
220
0.0
230
1.0
  2
SOLID
 70
     1
 71
     1
 91
        4
 92
        3
 72
     1
 73
     1
 93
        4
 10
46.800000304000001
 20
61.065471639110967
 42
0.0
 10
41.999999744
 20
69.37931429511103
 42
0.2679491729043174
 10
33.999999488000007
 20
55.522909191110976
 42
0.0
 10
43.600000608000002
 20
55.522909191110877
 42
-0.2679492534191114
 97
        1
330
10D
 92
        3
 72
     1
 73
     1
 93
        4
 10
58.000000256000007
 20
69.379314295111016
 42
0.0
 10
53.199999695999999
 20
61.065471639110974
 42
-0.2679492534191068
 10
56.399999391999998
 20
55.522909191110976
 42
0.0
 10
66.000000512
 20
55.522909191110983
 42
0.2679491729043167
 97
        1
330
10F
 92
        3
 72
     1
 73
     1
 93
        4
 10
46.800000304000001
 20
49.980344711110988
 42
0.0
 10
41.999999744
 20
41.666502055110996
 42
0.2679491634256227
 10
58.000000256000007
 20
41.666502055110996
 42
0.0
 10
53.199999695999999
 20
49.98034471111098
 42
-0.2679490704551648
 97
        1
330
110
 92
        3
 72
     1
 73
     1
 93
        2
 10
45.999999872000004
 20
55.522909191110976
 42
-0.9999999999999963
 10
54.000000127999996
 20
55.522909191110976
 42
-1.0000000000000071
 97
        1
330
111
 75
     0
 76
     1
 98
        0
  0
LWPOLYLINE
  5
10F
102
{ACAD_REACTORS
330
10E
102
}
100
AcDbEntity
  8
0
  6
CONTINUOUS
 62
     7
100
AcDbPolyline
 90
        4
 70
     1
 10
58.0
 20
69.379314
 10
53.2
 20
61.065472
 42
-0.267949
 10
56.399999
 20
55.522909
 10
66.000001
 20
55.522909
 42
0.267949
  0
LWPOLYLINE
  5
110
102
{ACAD_REACTORS
330
10E
102
}
100
AcDbEntity
  8
0
  6
CONTINUOUS
 62
     7
100
AcDbPolyline
 90
        4
 70
     1
 10
46.8
 20
49.980345
 10
42.0
 20
41.666502
 42
0.267949
 10
58.0
 20
41.666502
 10
53.2
 20
49.980345
 42
-0.267949
  0
LWPOLYLINE
  5
111
102
{ACAD_REACTORS
330
10E
102
}
100
AcDbEntity
  8
0
  6
CONTINUOUS
 62
     7
100
AcDbPolyline
 90
        2
 70
     1
 10
46.0
 20
55.522909
 42
-1.0
 10
54.0
 20
55.522909
 42
-1.0
  0
ENDBLK
  5
112
100
AcDbEntity
  8
0
100
AcDbBlockEnd
  0
BLOCK
  5
114
100
AcDbEntity
  8
0
100
AcDbBlockBegin
  2
CIRCLE_18
 70
     0
 10
0.0
 20
0.0
 30
0.0
  3
CIRCLE_18
  1

  0
LWPOLYLINE
  5
115
102
{ACAD_REACTORS
330
116
102
}
100
AcDbEntity
  8
0
  6
CONTINUOUS
 62
     7
100
AcDbPolyline
 90
        5
 70
     1
 10
25.0
 20
120.0
 10
17.704373
 20
106.893748
 10
29.163499
 20
100.514999
 42
0.797081
 10
44.814402
 20
117.904891
 10
37.268002
 20
128.631114
  0
HATCH
  5
116
100
AcDbEntity
  8
0
 62
   252
100
AcDbHatch
 10
0.0
 20
0.0
 30
0.0
210
0.0
220
0.0
230
1.0
  2
SOLID
 70
     1
 71
     1
 91
        1
 92
        3
 72
     1
 73
     1
 93
        5
 10
25.0
 20
119.99999999999996
 42
0.0
 10
17.704373472035872
 20
106.89374830226174
 42
0.0
 10
29.163498777628817
 20
100.51499864180953
 42
0.7970813609866384
 10
44.814401774857672
 20
117.90489086095319
 42
0.0
 10
37.268002218571915
 20
128.6311135761913
 42
0.0
 97
        1
330
115
 75
     0
 76
     1
 98
        0
  0
LWPOLYLINE
  5
117
102
{ACAD_REACTORS
330
122
102
}
100
AcDbEntity
  8
0
  6
CONTINUOUS
 62
     7
100
AcDbPolyline
 90
        2
 70
     1
 10
10.0
 20
120.0
 42
1.0
 10
40.0
 20
120.0
 42
1.0
  0
ENDBLK
  5
118
100
AcDbEntity
  8
0
100
AcDbBlockEnd
  0
BLOCK
  5
11A
100
AcDbEntity
  8
0
100
AcDbBlockBegin
  2
BESCHRIFTUNG
 70
     0
 10
0.0
 20
0.0
 30
0.0
  3
BESCHRIFTUNG
  1

  0
LINE
  5
11B
100
AcDbEntity
  8
0
  6
CONTINUOUS
 62
     7
100
AcDbLine
 10
50.0
 20
60.0
 30
0.0
 11
25.0
 21
40.0
 31
0.0
  0
MTEXT
  5
11C
100
AcDbEntity
  8
0
100
AcDbMText
 10
62.5
 20
60.0
 30
0.0
 40
2.054647
 41
25.0
 71
     5
 72
     5
  1
\C7;\fArial|b0|i0|;\H2.0546471100301;Seitliche \PAuswahlpunkte \Pziehen, um die \PTextblockbreite \Pzu \U+00E4ndern.
  0
ENDBLK
  5
11D
100
AcDbEntity
  8
0
100
AcDbBlockEnd
  0
BLOCK
  5
11F
100
AcDbEntity
  8
0
100
AcDbBlockBegin
  2
GEBOGENER_PFEIL
 70
     0
 10
0.0
 20
0.0
 30
0.0
  3
GEBOGENER_PFEIL
  1

  0
ARC
  5
120
100
AcDbEntity
  8
0
  6
CONTINUOUS
 62
     7
100
AcDbCircle
 10
50.0
 20
36.25
 30
0.0
 40
16.25
100
AcDbArc
 50
27.910586
 51
152.089414
  0
LWPOLYLINE
  5
121
102
{ACAD_REACTORS
330
122
102
}
100
AcDbEntity
  8
0
  6
CONTINUOUS
 62
     7
100
AcDbPolyline
 90
        4
 70
     1
 10
35.640214
 20
43.856513
 10
36.31847
 20
43.536406
 10
35.0
 20
42.5
 10
34.961957
 20
44.176619
  0
HATCH
  5
122
100
AcDbEntity
  8
0
 62
     7
100
AcDbHatch
 10
0.0
 20
0.0
 30
0.0
210
0.0
220
0.0
230
1.0
  2
SOLID
 70
     1
 71
     1
 91
        2
 92
        3
 72
     0
 73
     1
 93
        4
 10
35.64021362299237
 20
43.856512683661691
 10
36.318469964823208
 20
43.536405872165517
 10
35.0
 20
42.500000000000021
 10
34.961957281161531
 20
44.17661949515788
 97
        2
330
117
330
121
 92
        3
 72
     0
 73
     1
 93
        4
 10
64.359786377007623
 20
43.856512683661691
 10
63.681530035176792
 20
43.536405872165517
 10
65.0
 20
42.500000000000021
 10
65.038042718838483
 20
44.17661949515788
 97
        1
330
123
 75
     0
 76
     1
 98
        0
  0
LWPOLYLINE
  5
123
102
{ACAD_REACTORS
330
122
102
}
100
AcDbEntity
  8
0
  6
CONTINUOUS
 62
     7
100
AcDbPolyline
 90
        4
 70
     1
 10
64.359786
 20
43.856513
 10
63.68153
 20
43.536406
 10
65.0
 20
42.5
 10
65.038043
 20
44.176619
  0
ENDBLK
  5
124
100
AcDbEntity
  8
0
100
AcDbBlockEnd
  0
BLOCK
  5
126
100
AcDbEntity
  8
0
100
AcDbBlockBegin
  2
SECHSKANT_SCHRAUBENKOPF
 70
     0
 10
0.0
 20
0.0
 30
0.0
  3
SECHSKANT_SCHRAUBENKOPF
  1

  0
LWPOLYLINE
  5
127
102
{ACAD_REACTORS
330
150
102
}
100
AcDbEntity
  8
0
  6
CONTINUOUS
 62
     7
100
AcDbPolyline
 90
        2
 70
     1
 10
0.0
 20
7.5
 42
-1.0
 10
15.0
 20
7.5
 42
-1.0
  0
LWPOLYLINE
  5
128
102
{ACAD_REACTORS
330
150
102
}
100
AcDbEntity
  8
0
  6
CONTINUOUS
 62
     7
100
AcDbPolyline
 90
        6
 70
     1
 10
10.386751
 20
12.5
 10
4.613249
 20
12.5
 10
1.726497
 20
7.5
 10
4.613249
 20
2.5
 10
10.386751
 20
2.5
 10
13.273503
 20
7.5
  0
ENDBLK
  5
129
100
AcDbEntity
  8
0
100
AcDbBlockEnd
  0
BLOCK
  5
12B
100
AcDbEntity
  8
0
100
AcDbBlockBegin
  2
GEWINDE1
 70
     0
 10
0.0
 20
0.0
 30
0.0
  3
GEWINDE1
  1

  0
LWPOLYLINE
  5
12C
100
AcDbEntity
  8
0
  6
CONTINUOUS
 62
     7
100
AcDbPolyline
 90
       10
 70
     0
 10
0.0
 20
8.0
 10
0.0
 20
0.0
 10
1.785714
 20
8.0
 10
3.571429
 20
0.0
 10
5.357143
 20
8.0
 10
7.142857
 20
0.0
 10
8.928571
 20
8.0
 10
10.714286
 20
0.0
 10
12.5
 20
8.0
 10
12.5
 20
0.0
  0
ENDBLK
  5
12D
100
AcDbEntity
  8
0
100
AcDbBlockEnd
  0
BLOCK
  5
12F
100
AcDbEntity
  8
0
100
AcDbBlockBegin
  2
FEDER
 70
     0
 10
0.0
 20
0.0
 30
0.0
  3
FEDER
  1

  0
LWPOLYLINE
  5
130
100
AcDbEntity
  8
0
  6
CONTINUOUS
 62
     7
100
AcDbPolyline
 90
       10
 70
     0
 10
-140.742336
 20
-53.794325
 10
-124.614357
 20
-51.728805
 10
-134.467139
 20
-64.663285
 10
-118.33916
 20
-62.597765
 10
-128.191942
 20
-75.532246
 10
-112.063962
 20
-73.466726
 10
-121.916745
 20
-86.401206
 10
-105.788765
 20
-84.335686
 10
-115.641548
 20
-97.270166
 10
-99.513568
 20
-95.204646
  0
LINE
  5
131
100
AcDbEntity
  8
0
  6
CONTINUOUS
 62
     7
100
AcDbLine
 10
-102.87116
 20
-104.389126
 30
0.0
 11
-99.513568
 21
-95.204646
 31
0.0
  0
ELLIPSE
  5
132
102
{ACAD_REACTORS
330
150
102
}
100
AcDbEntity
  8
0
  6
CONTINUOUS
 62
     7
100
AcDbEllipse
 10
-99.9781
 20
-109.400054
 30
0.0
 11
2.8930604409852885
 21
-5.0109276723637439
 31
0.0
210
0.0
220
0.0
230
1.0
 40
0.864137
 41
1.5707963267948963
 42
4.7123889803847039
  0
ELLIPSE
  5
133
102
{ACAD_REACTORS
330
150
102
}
100
AcDbEntity
  8
0
  6
CONTINUOUS
 62
     7
100
AcDbEllipse
 10
-99.9781
 20
-109.400054
 30
0.0
 11
2.8930604409852885
 21
-5.0109276723637439
 31
0.0
210
0.0
220
0.0
230
1.0
 40
0.864137
 41
4.7123889803846897
 42
1.5707963267948963
  0
ELLIPSE
  5
134
102
{ACAD_REACTORS
330
150
102
}
100
AcDbEntity
  8
0
  6
CONTINUOUS
 62
     7
100
AcDbEllipse
 10
-135.84884
 20
-46.27011
 30
0.0
 11
2.7900635097797308
 21
-4.8325317545201818
 31
0.0
210
0.0
220
0.0
230
1.0
 40
0.896037
 41
1.5707963267948963
 42
4.7123889803847039
  0
ELLIPSE
  5
135
102
{ACAD_REACTORS
330
150
102
}
100
AcDbEntity
  8
0
  6
CONTINUOUS
 62
     7
100
AcDbEllipse
 10
-135.84884
 20
-46.27011
 30
0.0
 11
2.7900635097797313
 21
-4.8325317545201827
 31
0.0
210
0.0
220
0.0
230
1.0
 40
0.896037
 41
4.7123889803846897
 42
1.5707963267949108
  0
ENDBLK
  5
136
100
AcDbEntity
  8
0
100
AcDbBlockEnd
  0
BLOCK
  5
138
100
AcDbEntity
  8
0
100
AcDbBlockBegin
  2
KONZENTRISCHER_LAYER_1
 70
     0
 10
0.0
 20
0.0
 30
0.0
  3
KONZENTRISCHER_LAYER_1
  1

  0
LWPOLYLINE
  5
139
102
{ACAD_REACTORS
330
150
102
}
100
AcDbEntity
  8
0
  6
CONTINUOUS
 62
     7
100
AcDbPolyline
 90
        2
 70
     1
 10
10.8
 20
50.8
 42
1.0
 10
90.8
 20
50.8
 42
1.0
  0
LWPOLYLINE
  5
13A
102
{ACAD_REACTORS
330
150
102
}
100
AcDbEntity
  8
0
  6
CONTINUOUS
 62
     7
100
AcDbPolyline
 90
        2
 70
     1
 10
20.8
 20
50.8
 42
-1.0
 10
80.8
 20
50.8
 42
-1.0
  0
ENDBLK
  5
13B
100
AcDbEntity
  8
0
100
AcDbBlockEnd
  0
BLOCK
  5
13D
100
AcDbEntity
  8
0
100
AcDbBlockBegin
  2
AKTENORDNER
 70
     0
 10
0.0
 20
0.0
 30
0.0
  3
AKTENORDNER
  1

  0
LWPOLYLINE
  5
13E
102
{ACAD_REACTORS
330
150
102
}
100
AcDbEntity
  8
0
  6
CONTINUOUS
 62
     7
100
AcDbPolyline
 90
        3
 70
     1
 10
42.5
 20
57.5
 10
57.5
 20
57.5
 10
50.0
 20
42.5
  0
ENDBLK
  5
13F
100
AcDbEntity
  8
0
100
AcDbBlockEnd
  0
BLOCK
  5
141
100
AcDbEntity
  8
0
100
AcDbBlockBegin
  2
KONZENTRISCHER_LAYER_3
 70
     2
 10
0.0
 20
0.0
 30
0.0
  3
KONZENTRISCHER_LAYER_3
  1

  0
LWPOLYLINE
  5
142
102
{ACAD_REACTORS
330
150
102
}
100
AcDbEntity
  8
0
  6
CONTINUOUS
 62
     7
100
AcDbPolyline
 90
        2
 70
     1
 10
5.4
 20
25.4
 42
1.0
 10
45.4
 20
25.4
 42
1.0
  0
LWPOLYLINE
  5
143
102
{ACAD_REACTORS
330
150
102
}
100
AcDbEntity
  8
0
  6
CONTINUOUS
 62
     7
100
AcDbPolyline
 90
        2
 70
     1
 10
15.4
 20
25.4
 42
-1.0
 10
35.4
 20
25.4
 42
-1.0
  0
ENDBLK
  5
144
100
AcDbEntity
  8
0
100
AcDbBlockEnd
  0
BLOCK
  5
146
100
AcDbEntity
  8
0
100
AcDbBlockBegin
  2
KONZENTRISCHER_LAYER_2
 70
     0
 10
0.0
 20
0.0
 30
0.0
  3
KONZENTRISCHER_LAYER_2
  1

  0
LWPOLYLINE
  5
147
102
{ACAD_REACTORS
330
150
102
}
100
AcDbEntity
  8
0
  6
CONTINUOUS
 62
     7
100
AcDbPolyline
 90
        2
 70
     1
 10
8.1
 20
38.1
 42
1.0
 10
68.1
 20
38.1
 42
1.0
  0
LWPOLYLINE
  5
148
102
{ACAD_REACTORS
330
150
102
}
100
AcDbEntity
  8
0
  6
CONTINUOUS
 62
     7
100
AcDbPolyline
 90
        2
 70
     1
 10
18.1
 20
38.1
 42
-1.0
 10
58.1
 20
38.1
 42
-1.0
  0
ENDBLK
  5
149
100
AcDbEntity
  8
0
100
AcDbBlockEnd
  0
BLOCK
  5
14B
100
AcDbEntity
  8
0
100
AcDbBlockBegin
  2
CIRCLE_28
 70
     0
 10
0.0
 20
0.0
 30
0.0
  3
CIRCLE_28
  1

  0
LINE
  5
14C
102
{ACAD_REACTORS
330
150
102
}
100
AcDbEntity
  8
0
  6
CONTINUOUS
 62
     7
100
AcDbLine
 10
17.393399
 20
11.393397
 30
0.0
 11
14.393398
 21
14.393398
 31
0.0
  0
LINE
  5
14D
102
{ACAD_REACTORS
330
150
102
}
100
AcDbEntity
  8
0
  6
CONTINUOUS
 62
     7
100
AcDbLine
 10
14.393398
 20
14.393398
 30
0.0
 11
35.606602
 21
35.606602
 31
0.0
  0
LINE
  5
14E
102
{ACAD_REACTORS
330
150
102
}
100
AcDbEntity
  8
0
  6
CONTINUOUS
 62
     7
100
AcDbLine
 10
35.606602
 20
35.606602
 30
0.0
 11
38.606603
 21
32.606601
 31
0.0
  0
ELLIPSE
  5
14F
102
{ACAD_REACTORS
330
150
102
}
100
AcDbEntity
  8
0
  6
CONTINUOUS
 62
     7
100
AcDbEllipse
 10
27.717659
 20
22.282341
 30
0.0
 11
10.888943174760941
 21
-10.888943174760902
 31
0.0
210
0.0
220
0.0
230
1.0
 40
0.974398
 41
4.7383210749359765
 42
1.5448642322436092
  0
HATCH
  5
150
100
AcDbEntity
  8
0
 62
   252
100
AcDbHatch
 10
0.0
 20
0.0
 30
0.0
210
0.0
220
0.0
230
1.0
  2
SOLID
 70
     1
 71
     1
 91
        1
 92
        1
 93
        4
 72
     1
 10
17.393399210548534
 20
11.393397353854754
 11
14.39339828220167
 21
14.393398282201606
 72
     1
 10
14.39339828220167
 20
14.393398282201606
 11
35.606601717798064
 21
35.606601717798078
 72
     1
 10
35.606601717798064
 20
35.606601717798078
 11
38.606602646144928
 21
32.606600789451221
 72
     3
 10
27.717659471384025
 20
22.282340528615691
 11
10.610169046785099
 21
10.610169046785137
 40
1.026274
 50
1.4858
 51
178.5142
 73
     0
 97
       17
330
127
330
128
330
132
330
133
330
134
330
135
330
139
330
13A
330
13E
330
142
330
143
330
147
330
148
330
14C
330
14D
330
14E
330
14F
 75
     0
 76
     1
 98
        0
  0
LWPOLYLINE
  5
151
102
{ACAD_REACTORS
330
175
102
}
100
AcDbEntity
  8
0
  6
CONTINUOUS
 62
     7
100
AcDbPolyline
 90
        2
 70
     1
 10
10.0
 20
25.0
 42
-1.0
 10
40.0
 20
25.0
 42
-1.0
  0
ENDBLK
  5
152
100
AcDbEntity
  8
0
100
AcDbBlockEnd
  0
BLOCK
  5
154
100
AcDbEntity
  8
0
100
AcDbBlockBegin
  2
TEIL-LAYER_3
 70
     0
 10
0.0
 20
0.0
 30
0.0
  3
TEIL-LAYER_3
  1

  0
LWPOLYLINE
  5
155
102
{ACAD_REACTORS
330
175
102
}
100
AcDbEntity
  8
0
  6
CONTINUOUS
 62
     7
100
AcDbPolyline
 90
        4
 70
     1
 10
13.0
 20
2.0
 10
23.0
 20
2.0
 42
0.414214
 10
3.0
 20
22.0
 10
3.0
 20
12.0
 42
-0.414214
  0
ENDBLK
  5
156
100
AcDbEntity
  8
0
100
AcDbBlockEnd
  0
BLOCK
  5
158
100
AcDbEntity
  8
0
100
AcDbBlockBegin
  2
KRUMMER_PFEIL
 70
     0
 10
0.0
 20
0.0
 30
0.0
  3
KRUMMER_PFEIL
  1

  0
LWPOLYLINE
  5
159
102
{ACAD_REACTORS
330
175
102
}
100
AcDbEntity
  8
0
  6
CONTINUOUS
 62
     7
100
AcDbPolyline
 90
       11
 70
     1
 10
32.5
 20
45.0
 10
57.1
 20
45.0
 42
0.170304
 10
78.744511
 20
52.592484
 10
91.719131
 20
62.972181
 10
94.842606
 20
59.067837
 10
92.5
 20
70.0
 10
82.348706
 20
74.685213
 10
85.472181
 20
70.780869
 10
72.49756
 20
60.401173
 42
-0.170304
 10
57.1
 20
55.0
 10
32.5
 20
55.0
  0
ENDBLK
  5
15A
100
AcDbEntity
  8
0
100
AcDbBlockEnd
  0
BLOCK
  5
15C
100
AcDbEntity
  8
0
100
AcDbBlockBegin
  2
2D-DOPPEL
 70
     0
 10
0.0
 20
0.0
 30
0.0
  3
2D-DOPPEL
  1

  0
LWPOLYLINE
  5
15D
102
{ACAD_REACTORS
330
175
102
}
100
AcDbEntity
  8
0
  6
CONTINUOUS
 62
     7
100
AcDbPolyline
 90
       10
 70
     1
 10
40.0
 20
55.0
 10
40.0
 20
60.0
 10
35.0
 20
50.0
 10
40.0
 20
40.0
 10
40.0
 20
45.0
 10
60.0
 20
45.0
 10
60.0
 20
40.0
 10
65.0
 20
50.0
 10
60.0
 20
60.0
 10
60.0
 20
55.0
  0
ENDBLK
  5
15E
100
AcDbEntity
  8
0
100
AcDbBlockEnd
  0
BLOCK
  5
160
100
AcDbEntity
  8
0
100
AcDbBlockBegin
  2
TEIL-LAYER_4
 70
     0
 10
0.0
 20
0.0
 30
0.0
  3
TEIL-LAYER_4
  1

  0
LWPOLYLINE
  5
161
102
{ACAD_REACTORS
330
175
102
}
100
AcDbEntity
  8
0
  6
CONTINUOUS
 62
     7
100
AcDbPolyline
 90
        3
 70
     1
 10
1.35
 20
9.335743
 10
11.35
 20
9.335743
 42
0.414214
 10
1.35
 20
19.335743
  0
ENDBLK
  5
162
100
AcDbEntity
  8
0
100
AcDbBlockEnd
  0
BLOCK
  5
164
100
AcDbEntity
  8
0
100
AcDbBlockBegin
  2
1D-PFEIL
 70
     0
 10
0.0
 20
0.0
 30
0.0
  3
1D-PFEIL
  1

  0
LINE
  5
165
102
{ACAD_REACTORS
330
175
102
}
100
AcDbEntity
  8
0
  6
CONTINUOUS
 62
     7
100
AcDbLine
 10
35.065333
 20
45.0
 30
0.0
 11
60.065333
 21
45.0
 31
0.0
  0
LINE
  5
166
102
{ACAD_REACTORS
330
175
102
}
100
AcDbEntity
  8
0
  6
CONTINUOUS
 62
     7
100
AcDbLine
 10
60.065333
 20
45.0
 30
0.0
 11
60.065333
 21
40.0
 31
0.0
  0
LINE
  5
167
102
{ACAD_REACTORS
330
175
102
}
100
AcDbEntity
  8
0
  6
CONTINUOUS
 62
     7
100
AcDbLine
 10
60.065333
 20
40.0
 30
0.0
 11
65.065333
 21
50.0
 31
0.0
  0
LINE
  5
168
102
{ACAD_REACTORS
330
175
102
}
100
AcDbEntity
  8
0
  6
CONTINUOUS
 62
     7
100
AcDbLine
 10
65.065333
 20
50.0
 30
0.0
 11
60.065333
 21
60.0
 31
0.0
  0
LINE
  5
169
102
{ACAD_REACTORS
330
175
102
}
100
AcDbEntity
  8
0
  6
CONTINUOUS
 62
     7
100
AcDbLine
 10
60.065333
 20
60.0
 30
0.0
 11
60.065333
 21
55.0
 31
0.0
  0
LINE
  5
16A
102
{ACAD_REACTORS
330
175
102
}
100
AcDbEntity
  8
0
  6
CONTINUOUS
 62
     7
100
AcDbLine
 10
60.065333
 20
55.0
 30
0.0
 11
35.065333
 21
55.0
 31
0.0
  0
LWPOLYLINE
  5
16B
100
AcDbEntity
  8
0
  6
CONTINUOUS
 62
     7
100
AcDbPolyline
 90
        7
 70
     1
 10
35.065333
 20
45.0
 10
60.065333
 20
45.0
 10
60.065333
 20
40.0
 10
65.065333
 20
50.0
 10
60.065333
 20
60.0
 10
60.065333
 20
55.0
 10
35.065333
 20
55.0
  0
ENDBLK
  5
16C
100
AcDbEntity
  8
0
100
AcDbBlockEnd
  0
BLOCK
  5
16E
100
AcDbEntity
  8
0
100
AcDbBlockBegin
  2
RAUTE
 70
     0
 10
0.0
 20
0.0
 30
0.0
  3
RAUTE
  1

  0
LWPOLYLINE
  5
16F
102
{ACAD_REACTORS
330
175
102
}
100
AcDbEntity
  8
0
  6
CONTINUOUS
 62
     7
100
AcDbPolyline
 90
        4
 70
     1
 10
35.0
 20
50.0
 10
50.0
 20
65.0
 10
65.0
 20
50.0
 10
50.0
 20
35.0
  0
ENDBLK
  5
170
100
AcDbEntity
  8
0
100
AcDbBlockEnd
  0
BLOCK
  5
172
100
AcDbEntity
  8
0
100
AcDbBlockBegin
  2
ORGANISATION
 70
     0
 10
0.0
 20
0.0
 30
0.0
  3
ORGANISATION
  1

  0
MTEXT
  5
173
100
AcDbEntity
  8
0
100
AcDbMText
 10
25.598437
 20
19.685157
 30
0.0
 40
1.540968
 41
12.5
 71
     5
 72
     5
  1
\C7;\fArial|b0|i0|;\H1.5409676972777;Organisatio\Pn
  0
LWPOLYLINE
  5
174
102
{ACAD_REACTORS
330
175
102
}
100
AcDbEntity
  8
0
  6
CONTINUOUS
 62
     7
100
AcDbPolyline
 90
        4
 70
     1
 10
23.298437
 20
22.578531
 10
24.498438
 20
22.578531
 10
24.498438
 20
23.755002
 10
23.298437
 20
23.755002
  0
HATCH
  5
175
100
AcDbEntity
  8
0
 62
   253
100
AcDbHatch
 10
0.0
 20
0.0
 30
0.0
210
0.0
220
0.0
230
1.0
  2
SOLID
 70
     1
 71
     1
 91
        4
 92
        3
 72
     0
 73
     1
 93
        4
 10
23.298437499999999
 20
22.578531249999997
 10
24.498437500000001
 20
22.578531249999997
 10
24.498437500000001
 20
23.755001838235291
 10
23.298437499999999
 20
23.755001838235291
 97
       13
330
151
330
155
330
159
330
15D
330
161
330
165
330
166
330
167
330
168
330
169
330
16A
330
16F
330
174
 92
        3
 72
     0
 73
     1
 93
        4
 10
25.098437499999999
 20
22.578531249999997
 10
26.298437499999999
 20
22.578531249999997
 10
26.298437499999999
 20
23.755001838235291
 10
25.098437499999999
 20
23.755001838235291
 97
        1
330
176
 92
        3
 72
     0
 73
     1
 93
        4
 10
26.898437499999996
 20
22.578531249999997
 10
28.098437499999999
 20
22.578531249999997
 10
28.098437499999999
 20
23.755001838235291
 10
26.898437499999996
 20
23.755001838235291
 97
        1
330
177
 92
        3
 72
     0
 73
     1
 93
        4
 10
24.498437500000001
 20
24.931472426470584
 10
26.898437500000004
 20
24.931472426470584
 10
26.898437500000004
 20
27.284413602941171
 10
24.498437500000001
 20
27.284413602941171
 97
        1
330
178
 75
     0
 76
     1
 98
        0
  0
LWPOLYLINE
  5
176
102
{ACAD_REACTORS
330
175
102
}
100
AcDbEntity
  8
0
  6
CONTINUOUS
 62
     7
100
AcDbPolyline
 90
        4
 70
     1
 10
25.098437
 20
22.578531
 10
26.298437
 20
22.578531
 10
26.298437
 20
23.755002
 10
25.098437
 20
23.755002
  0
LWPOLYLINE
  5
177
102
{ACAD_REACTORS
330
175
102
}
100
AcDbEntity
  8
0
  6
CONTINUOUS
 62
     7
100
AcDbPolyline
 90
        4
 70
     1
 10
26.898437
 20
22.578531
 10
28.098437
 20
22.578531
 10
28.098437
 20
23.755002
 10
26.898437
 20
23.755002
  0
LWPOLYLINE
  5
178
102
{ACAD_REACTORS
330
175
102
}
100
AcDbEntity
  8
0
  6
CONTINUOUS
 62
     7
100
AcDbPolyline
 90
        4
 70
     1
 10
24.498438
 20
24.931472
 10
26.898438
 20
24.931472
 10
26.898438
 20
27.284414
 10
24.498438
 20
27.284414
  0
LWPOLYLINE
  5
179
102
{ACAD_REACTORS
330
17A
102
}
100
AcDbEntity
  8
0
  6
CONTINUOUS
 62
     7
100
AcDbPolyline
 90
        4
 70
     1
 10
24.298437
 20
25.22559
 10
26.698437
 20
25.22559
 10
26.698437
 20
27.578531
 10
24.298437
 20
27.578531
  0
HATCH
  5
17A
100
AcDbEntity
  8
0
 62
     3
100
AcDbHatch
 10
0.0
 20
0.0
 30
0.0
210
0.0
220
0.0
230
1.0
  2
SOLID
 70
     1
 71
     1
 91
        1
 92
        3
 72
     0
 73
     1
 93
        4
 10
24.298437499999999
 20
25.225590073529407
 10
26.698437499999997
 20
25.225590073529407
 10
26.698437499999997
 20
27.578531249999994
 10
24.298437499999999
 20
27.578531249999994
 97
        1
330
179
 75
     0
 76
     1
 98
        0
  0
LWPOLYLINE
  5
17B
102
{ACAD_REACTORS
330
17C
102
}
100
AcDbEntity
  8
0
  6
CONTINUOUS
 62
     7
100
AcDbPolyline
 90
        4
 70
     1
 10
23.098437
 20
22.872649
 10
24.298437
 20
22.872649
 10
24.298437
 20
24.049119
 10
23.098437
 20
24.049119
  0
HATCH
  5
17C
100
AcDbEntity
  8
0
 62
     4
100
AcDbHatch
 10
0.0
 20
0.0
 30
0.0
210
0.0
220
0.0
230
1.0
  2
SOLID
 70
     1
 71
     1
 91
        3
 92
        3
 72
     0
 73
     1
 93
        4
 10
23.098437499999996
 20
22.87264889705882
 10
24.298437499999999
 20
22.87264889705882
 10
24.298437499999999
 20
24.049119485294113
 10
23.098437499999996
 20
24.049119485294113
 97
        1
330
17B
 92
        3
 72
     0
 73
     1
 93
        4
 10
24.898437500000004
 20
22.87264889705882
 10
26.098437500000003
 20
22.87264889705882
 10
26.098437500000003
 20
24.049119485294113
 10
24.898437500000004
 20
24.049119485294113
 97
        1
330
17D
 92
        3
 72
     0
 73
     1
 93
        4
 10
26.698437500000001
 20
22.87264889705882
 10
27.8984375
 20
22.87264889705882
 10
27.8984375
 20
24.049119485294113
 10
26.698437500000001
 20
24.049119485294113
 97
        1
330
17E
 75
     0
 76
     1
 98
        0
  0
LWPOLYLINE
  5
17D
102
{ACAD_REACTORS
330
17C
102
}
100
AcDbEntity
  8
0
  6
CONTINUOUS
 62
     7
100
AcDbPolyline
 90
        4
 70
     1
 10
24.898438
 20
22.872649
 10
26.098438
 20
22.872649
 10
26.098438
 20
24.049119
 10
24.898438
 20
24.049119
  0
LWPOLYLINE
  5
17E
102
{ACAD_REACTORS
330
17C
102
}
100
AcDbEntity
  8
0
  6
CONTINUOUS
 62
     7
100
AcDbPolyline
 90
        4
 70
     1
 10
26.698438
 20
22.872649
 10
27.898438
 20
22.872649
 10
27.898438
 20
24.049119
 10
26.698438
 20
24.049119
  0
LWPOLYLINE
  5
17F
100
AcDbEntity
  8
0
  6
CONTINUOUS
 62
     7
100
AcDbPolyline
 90
        4
 70
     0
 10
23.698437
 20
24.049119
 10
23.698437
 20
24.637355
 10
25.498437
 20
24.637355
 10
25.498437
 20
25.22559
  0
LWPOLYLINE
  5
180
100
AcDbEntity
  8
0
  6
CONTINUOUS
 62
     7
100
AcDbPolyline
 90
        4
 70
     0
 10
25.498437
 20
24.049119
 10
25.498437
 20
24.637355
 10
27.298437
 20
24.637355
 10
27.288437
 20
24.049119
  0
ENDBLK
  5
181
100
AcDbEntity
  8
0
100
AcDbBlockEnd
  0
BLOCK
  5
183
100
AcDbEntity
  8
0
100
AcDbBlockBegin
  2
AFP-SERVER
 70
     0
 10
0.0
 20
0.0
 30
0.0
  3
AFP-SERVER
  1

  0
MTEXT
  5
184
100
AcDbEntity
  8
0
100
AcDbMText
 10
25.4
 20
21.276607
 30
0.0
 40
1.540968
 41
12.5
 71
     5
 72
     5
  1
\C7;\fArial|b0|i0|;\H1.5409676972777;AFP-Server
  0
LWPOLYLINE
  5
185
102
{ACAD_REACTORS
330
186
102
}
100
AcDbEntity
  8
0
  6
CONTINUOUS
 62
     7
100
AcDbPolyline
 90
        4
 70
     1
 10
23.25617
 20
23.05625
 10
26.888511
 20
23.05625
 10
26.888511
 20
23.128714
 10
23.25617
 20
23.128714
  0
HATCH
  5
186
100
AcDbEntity
  8
0
 62
   251
100
AcDbHatch
 10
0.0
 20
0.0
 30
0.0
210
0.0
220
0.0
230
1.0
  2
SOLID
 70
     1
 71
     1
 91
        1
 92
        3
 72
     0
 73
     1
 93
        4
 10
23.256170212765955
 20
23.056250000000002
 10
26.88851063829787
 20
23.056250000000002
 10
26.88851063829787
 20
23.12871376811594
 10
23.256170212765955
 20
23.12871376811594
 97
        1
330
185
 75
     0
 76
     1
 98
        0
  0
LWPOLYLINE
  5
187
102
{ACAD_REACTORS
330
188
102
}
100
AcDbEntity
  8
0
  6
CONTINUOUS
 62
     7
100
AcDbPolyline
 90
        4
 70
     1
 10
23.2
 20
22.9
 10
26.944681
 20
22.9
 10
26.944681
 20
23.044928
 10
23.2
 20
23.044928
  0
HATCH
  5
188
100
AcDbEntity
  8
0
 62
     7
100
AcDbHatch
 10
0.0
 20
0.0
 30
0.0
210
0.0
220
0.0
230
1.0
  2
SOLID
 70
     1
 71
     1
 91
        2
 92
        3
 72
     0
 73
     1
 93
        4
 10
23.199999999999996
 20
22.899999999999999
 10
26.944680851063826
 20
22.899999999999999
 10
26.944680851063826
 20
23.044927536231882
 10
23.199999999999996
 20
23.044927536231882
 97
        1
330
187
 92
        3
 72
     0
 73
     1
 93
        4
 10
23.387234042553189
 20
23.117391304347823
 10
26.832340425531914
 20
23.117391304347823
 10
26.832340425531914
 20
27.899999999999999
 10
23.387234042553189
 20
27.899999999999999
 97
        1
330
189
 75
     0
 76
     1
 98
        0
  0
LWPOLYLINE
  5
189
102
{ACAD_REACTORS
330
188
102
}
100
AcDbEntity
  8
0
  6
CONTINUOUS
 62
     7
100
AcDbPolyline
 90
        4
 70
     1
 10
23.387234
 20
23.117391
 10
26.83234
 20
23.117391
 10
26.83234
 20
27.9
 10
23.387234
 20
27.9
  0
LWPOLYLINE
  5
18A
102
{ACAD_REACTORS
330
18B
102
}
100
AcDbEntity
  8
0
  6
CONTINUOUS
 62
     7
100
AcDbPolyline
 90
        4
 70
     1
 10
23.705532
 20
23.280435
 10
26.514043
 20
23.280435
 10
26.514043
 20
27.592029
 10
23.705532
 20
27.592029
  0
HATCH
  5
18B
100
AcDbEntity
  8
0
 62
   253
100
AcDbHatch
 10
0.0
 20
0.0
 30
0.0
210
0.0
220
0.0
230
1.0
  2
SOLID
 70
     1
 71
     1
 91
        1
 92
        3
 72
     0
 73
     1
 93
        4
 10
23.705531914893612
 20
23.280434782608694
 10
26.514042553191487
 20
23.280434782608694
 10
26.514042553191487
 20
27.592028985507248
 10
23.705531914893612
 20
27.592028985507248
 97
        1
330
18A
 75
     0
 76
     1
 98
        0
  0
LWPOLYLINE
  5
18C
102
{ACAD_REACTORS
330
18D
102
}
100
AcDbEntity
  8
0
  6
CONTINUOUS
 62
     7
100
AcDbPolyline
 90
        6
 70
     1
 10
26.514043
 20
27.592029
 10
26.701277
 20
27.746014
 10
26.701277
 20
23.126449
 10
23.518298
 20
23.126449
 10
23.705532
 20
23.280435
 10
26.514043
 20
23.280435
  0
HATCH
  5
18D
100
AcDbEntity
  8
0
 62
   251
100
AcDbHatch
 10
0.0
 20
0.0
 30
0.0
210
0.0
220
0.0
230
1.0
  2
SOLID
 70
     1
 71
     1
 91
        1
 92
        3
 72
     0
 73
     1
 93
        6
 10
26.514042553191487
 20
27.592028985507248
 10
26.701276595744677
 20
27.74601449275362
 10
26.701276595744677
 20
23.126449275362319
 10
23.518297872340419
 20
23.126449275362319
 10
23.705531914893612
 20
23.280434782608694
 10
26.514042553191487
 20
23.280434782608694
 97
        1
330
18C
 75
     0
 76
     1
 98
        0
  0
LWPOLYLINE
  5
18E
102
{ACAD_REACTORS
330
19A
102
}
100
AcDbEntity
  8
0
  6
CONTINUOUS
 62
     7
100
AcDbPolyline
 90
        6
 70
     1
 10
26.701277
 20
27.746014
 10
23.518298
 20
27.746014
 10
23.518298
 20
23.126449
 10
23.705532
 20
23.280435
 10
23.705532
 20
27.592029
 10
26.514043
 20
27.592029
  0
LINE
  5
18F
100
AcDbEntity
  8
0
  6
CONTINUOUS
 62
   251
100
AcDbLine
 10
23.70314
 20
26.455254
 30
0.0
 11
26.51166
 21
26.455254
 31
0.0
  0
LINE
  5
190
100
AcDbEntity
  8
0
  6
CONTINUOUS
 62
   251
100
AcDbLine
 10
23.70314
 20
25.368297
 30
0.0
 11
26.51166
 21
25.368297
 31
0.0
  0
LINE
  5
191
100
AcDbEntity
  8
0
  6
CONTINUOUS
 62
   251
100
AcDbLine
 10
23.70314
 20
25.005978
 30
0.0
 11
26.51166
 21
25.005978
 31
0.0
  0
LINE
  5
192
100
AcDbEntity
  8
0
  6
CONTINUOUS
 62
   251
100
AcDbLine
 10
23.70314
 20
24.643659
 30
0.0
 11
26.51166
 21
24.643659
 31
0.0
  0
LINE
  5
193
100
AcDbEntity
  8
0
  6
CONTINUOUS
 62
   251
100
AcDbLine
 10
23.70314
 20
24.281341
 30
0.0
 11
26.51166
 21
24.281341
 31
0.0
  0
LINE
  5
194
100
AcDbEntity
  8
0
  6
CONTINUOUS
 62
     7
100
AcDbLine
 10
23.703191
 20
24.345312
 30
0.0
 11
26.511711
 21
24.345312
 31
0.0
  0
LINE
  5
195
100
AcDbEntity
  8
0
  6
CONTINUOUS
 62
     7
100
AcDbLine
 10
23.703191
 20
24.707631
 30
0.0
 11
26.511711
 21
24.707631
 31
0.0
  0
LINE
  5
196
100
AcDbEntity
  8
0
  6
CONTINUOUS
 62
     7
100
AcDbLine
 10
23.703191
 20
25.06995
 30
0.0
 11
26.511711
 21
25.06995
 31
0.0
  0
LINE
  5
197
100
AcDbEntity
  8
0
  6
CONTINUOUS
 62
     7
100
AcDbLine
 10
23.703191
 20
25.432269
 30
0.0
 11
26.511711
 21
25.432269
 31
0.0
  0
LINE
  5
198
100
AcDbEntity
  8
0
  6
CONTINUOUS
 62
     7
100
AcDbLine
 10
23.703191
 20
26.519226
 30
0.0
 11
26.511711
 21
26.519226
 31
0.0
  0
LWPOLYLINE
  5
199
102
{ACAD_REACTORS
330
19A
102
}
100
AcDbEntity
  8
0
  6
CONTINUOUS
 62
     7
100
AcDbPolyline
 90
        4
 70
     1
 10
24.978723
 20
24.095652
 10
27.225532
 20
24.095652
 10
27.225532
 20
25.544928
 10
24.978723
 20
25.544928
  0
HATCH
  5
19A
100
AcDbEntity
  8
0
 62
   251
100
AcDbHatch
 10
0.0
 20
0.0
 30
0.0
210
0.0
220
0.0
230
1.0
  2
SOLID
 70
     1
 71
     1
 91
        1
 92
        3
 72
     0
 73
     1
 93
        4
 10
24.978723404255316
 20
24.095652173913042
 10
27.225531914893615
 20
24.095652173913042
 10
27.225531914893615
 20
25.544927536231878
 10
24.978723404255316
 20
25.544927536231878
 97
        2
330
18E
330
199
 75
     0
 76
     1
 98
        0
  0
LWPOLYLINE
  5
19B
102
{ACAD_REACTORS
330
19C
102
}
100
AcDbEntity
  8
0
  6
CONTINUOUS
 62
     7
100
AcDbPolyline
 90
        4
 70
     1
 10
25.502979
 20
24.358333
 10
27.6
 20
24.358333
 10
27.6
 20
25.807609
 10
25.502979
 20
25.807609
  0
HATCH
  5
19C
100
AcDbEntity
  8
0
 62
    10
100
AcDbHatch
 10
0.0
 20
0.0
 30
0.0
210
0.0
220
0.0
230
1.0
  2
SOLID
 70
     1
 71
     1
 91
        1
 92
        3
 72
     0
 73
     1
 93
        4
 10
25.502978723404251
 20
24.358333333333331
 10
27.599999999999994
 20
24.358333333333331
 10
27.599999999999994
 20
25.807608695652167
 10
25.502978723404251
 20
25.807608695652167
 97
        1
330
19B
 75
     0
 76
     1
 98
        0
  0
LWPOLYLINE
  5
19D
102
{ACAD_REACTORS
330
1A3
102
}
100
AcDbEntity
  8
0
  6
CONTINUOUS
 62
     7
100
AcDbPolyline
 90
       15
 70
     1
 10
26.097326
 20
24.781256
 10
26.005498
 20
24.781256
 10
25.916024
 20
24.781256
 10
25.904252
 20
24.701499
 10
25.890124
 20
24.621742
 10
25.72766
 20
24.621742
 10
25.824197
 20
25.10484
 10
25.920734
 20
25.590217
 10
26.007852
 20
25.590217
 10
26.094971
 20
25.590217
 10
26.193863
 20
25.10484
 10
26.2904
 20
24.621742
 10
26.205635
 20
24.621742
 10
26.123226
 20
24.621742
 10
26.109098
 20
24.701499
  0
LWPOLYLINE
  5
19E
102
{ACAD_REACTORS
330
1A3
102
}
100
AcDbEntity
  8
0
  6
CONTINUOUS
 62
     7
100
AcDbPolyline
 90
        6
 70
     1
 10
26.064362
 20
24.990902
 10
26.036107
 20
25.164088
 10
26.005498
 20
25.339553
 10
25.977243
 20
25.164088
 10
25.948988
 20
24.990902
 10
26.007852
 20
24.990902
  0
LWPOLYLINE
  5
19F
102
{ACAD_REACTORS
330
1A3
102
}
100
AcDbEntity
  8
0
  6
CONTINUOUS
 62
     7
100
AcDbPolyline
 90
       18
 70
     1
 10
26.339845
 20
25.590217
 10
26.735412
 20
25.590217
 10
26.735412
 20
25.485394
 10
26.735412
 20
25.38285
 10
26.617684
 20
25.38285
 10
26.499955
 20
25.38285
 10
26.499955
 20
25.298535
 10
26.499955
 20
25.214221
 10
26.601202
 20
25.214221
 10
26.700093
 20
25.214221
 10
26.700093
 20
25.116234
 10
26.700093
 20
25.018247
 10
26.601202
 20
25.018247
 10
26.499955
 20
25.018247
 10
26.499955
 20
24.621742
 10
26.4199
 20
24.621742
 10
26.339845
 20
24.621742
 10
26.339845
 20
25.10484
  0
LWPOLYLINE
  5
1A0
102
{ACAD_REACTORS
330
1A3
102
}
100
AcDbEntity
  8
0
  6
CONTINUOUS
 62
     7
100
AcDbPolyline
 90
       34
 70
     1
 10
26.820176
 20
25.590217
 10
26.952031
 20
25.590217
 10
27.083887
 20
25.590217
 10
27.105078
 20
25.587939
 10
27.126269
 20
25.58566
 10
27.145105
 20
25.578824
 10
27.161587
 20
25.571987
 10
27.178069
 20
25.560593
 10
27.192196
 20
25.546921
 10
27.203969
 20
25.530969
 10
27.215742
 20
25.512739
 10
27.234578
 20
25.469443
 10
27.248706
 20
25.41931
 10
27.255769
 20
25.360062
 10
27.258124
 20
25.293978
 10
27.255769
 20
25.223336
 10
27.246351
 20
25.16181
 10
27.232224
 20
25.109398
 10
27.211033
 20
25.063823
 10
27.19926
 20
25.045593
 10
27.185133
 20
25.027362
 10
27.168651
 20
25.01369
 10
27.152169
 20
25.002296
 10
27.133332
 20
24.993181
 10
27.112141
 20
24.986345
 10
27.09095
 20
24.984066
 10
27.067405
 20
24.981787
 10
27.025023
 20
24.981787
 10
26.980286
 20
24.981787
 10
26.980286
 20
24.801765
 10
26.980286
 20
24.621742
 10
26.900231
 20
24.621742
 10
26.820176
 20
24.621742
 10
26.820176
 20
25.10484
  0
LWPOLYLINE
  5
1A1
102
{ACAD_REACTORS
330
1A3
102
}
100
AcDbEntity
  8
0
  6
CONTINUOUS
 62
     7
100
AcDbPolyline
 90
       20
 70
     1
 10
26.980286
 20
25.177761
 10
26.999122
 20
25.177761
 10
27.020313
 20
25.177761
 10
27.041504
 20
25.18004
 10
27.060341
 20
25.184597
 10
27.074468
 20
25.193712
 10
27.083887
 20
25.207385
 10
27.098014
 20
25.241566
 10
27.100368
 20
25.262075
 10
27.102723
 20
25.284863
 10
27.098014
 20
25.325881
 10
27.093305
 20
25.344111
 10
27.086241
 20
25.362341
 10
27.076823
 20
25.376013
 10
27.062695
 20
25.385129
 10
27.046214
 20
25.391965
 10
27.025023
 20
25.394244
 10
27.003831
 20
25.394244
 10
26.980286
 20
25.394244
 10
26.980286
 20
25.284863
  0
LWPOLYLINE
  5
1A2
102
{ACAD_REACTORS
330
1A3
102
}
100
AcDbEntity
  8
0
  6
CONTINUOUS
 62
     7
100
AcDbPolyline
 90
        4
 70
     1
 10
23.892766
 20
26.894565
 10
24.454468
 20
26.894565
 10
24.454468
 20
27.438043
 10
23.892766
 20
27.438043
  0
HATCH
  5
1A3
100
AcDbEntity
  8
0
 62
    14
100
AcDbHatch
 10
0.0
 20
0.0
 30
0.0
210
0.0
220
0.0
230
1.0
  2
SOLID
 70
     1
 71
     1
 91
        1
 92
        3
 72
     0
 73
     1
 93
        4
 10
23.892765957446802
 20
26.894565217391282
 10
24.454468085106399
 20
26.894565217391282
 10
24.454468085106399
 20
27.43804347826087
 10
23.892765957446802
 20
27.43804347826087
 97
        6
330
19D
330
19E
330
19F
330
1A0
330
1A1
330
1A2
 75
     0
 76
     1
 98
        0
  0
LWPOLYLINE
  5
1A4
102
{ACAD_REACTORS
330
1A5
102
}
100
AcDbEntity
  8
0
  6
CONTINUOUS
 62
     7
100
AcDbPolyline
 90
        4
 70
     1
 10
23.892766
 20
27.166304
 10
24.173617
 20
27.166304
 10
24.173617
 20
27.438043
 10
23.892766
 20
27.438043
  0
HATCH
  5
1A5
100
AcDbEntity
  8
0
 62
    10
100
AcDbHatch
 10
0.0
 20
0.0
 30
0.0
210
0.0
220
0.0
230
1.0
  2
SOLID
 70
     1
 71
     1
 91
        1
 92
        3
 72
     0
 73
     1
 93
        4
 10
23.892765957446802
 20
27.166304347826074
 10
24.173617021276602
 20
27.166304347826074
 10
24.173617021276602
 20
27.43804347826087
 10
23.892765957446802
 20
27.43804347826087
 97
        1
330
1A4
 75
     0
 76
     1
 98
        0
  0
LWPOLYLINE
  5
1A6
102
{ACAD_REACTORS
330
1A7
102
}
100
AcDbEntity
  8
0
  6
CONTINUOUS
 62
     7
100
AcDbPolyline
 90
        4
 70
     1
 10
24.922553
 20
26.894565
 10
25.484255
 20
26.894565
 10
25.484255
 20
27.438043
 10
24.922553
 20
27.438043
  0
HATCH
  5
1A7
100
AcDbEntity
  8
0
 62
    94
100
AcDbHatch
 10
0.0
 20
0.0
 30
0.0
210
0.0
220
0.0
230
1.0
  2
SOLID
 70
     1
 71
     1
 91
        1
 92
        3
 72
     0
 73
     1
 93
        4
 10
24.922553191489371
 20
26.894565217391282
 10
25.484255319148971
 20
26.894565217391282
 10
25.484255319148971
 20
27.43804347826087
 10
24.922553191489371
 20
27.43804347826087
 97
        1
330
1A6
 75
     0
 76
     1
 98
        0
  0
LWPOLYLINE
  5
1A8
102
{ACAD_REACTORS
330
1A9
102
}
100
AcDbEntity
  8
0
  6
CONTINUOUS
 62
     7
100
AcDbPolyline
 90
        4
 70
     1
 10
24.922553
 20
27.166304
 10
25.203404
 20
27.166304
 10
25.203404
 20
27.438043
 10
24.922553
 20
27.438043
  0
HATCH
  5
1A9
100
AcDbEntity
  8
0
 62
     3
100
AcDbHatch
 10
0.0
 20
0.0
 30
0.0
210
0.0
220
0.0
230
1.0
  2
SOLID
 70
     1
 71
     1
 91
        1
 92
        3
 72
     0
 73
     1
 93
        4
 10
24.922553191489371
 20
27.166304347826074
 10
25.203404255319171
 20
27.166304347826074
 10
25.203404255319171
 20
27.43804347826087
 10
24.922553191489371
 20
27.43804347826087
 97
        1
330
1A8
 75
     0
 76
     1
 98
        0
  0
ENDBLK
  5
1AA
100
AcDbEntity
  8
0
100
AcDbBlockEnd
  0
BLOCK
  5
1AC
100
AcDbEntity
  8
0
100
AcDbBlockBegin
  2
COMPUTER
 70
     0
 10
0.0
 20
0.0
 30
0.0
  3
COMPUTER
  1

  0
MTEXT
  5
1AD
100
AcDbEntity
  8
0
100
AcDbMText
 10
25.151953
 20
22.318403
 30
0.0
 40
1.540968
 41
10.852718
 71
     5
 72
     5
  1
\C7;\fArial|b0|i0|;\H1.5409676972777;Computer
  0
LWPOLYLINE
  5
1AE
100
AcDbEntity
  8
0
  6
CONTINUOUS
 62
     7
100
AcDbPolyline
 90
        4
 70
     1
 10
22.964453
 20
25.816797
 10
27.339453
 20
25.816797
 10
27.339453
 20
28.941797
 10
22.964453
 20
28.941797
  0
LWPOLYLINE
  5
1AF
100
AcDbEntity
  8
0
  6
CONTINUOUS
 62
     7
100
AcDbPolyline
 90
        4
 70
     1
 10
22.651953
 20
23.941797
 10
27.651953
 20
23.941797
 10
27.651953
 20
25.348047
 10
22.651953
 20
25.348047
  0
LWPOLYLINE
  5
1B0
102
{ACAD_REACTORS
330
1B1
102
}
100
AcDbEntity
  8
0
  6
CONTINUOUS
 62
     7
100
AcDbPolyline
 90
        4
 70
     1
 10
22.808203
 20
24.098047
 10
27.495703
 20
24.098047
 10
27.495703
 20
25.191797
 10
22.808203
 20
25.191797
  0
HATCH
  5
1B1
100
AcDbEntity
  8
0
 62
   253
100
AcDbHatch
 10
0.0
 20
0.0
 30
0.0
210
0.0
220
0.0
230
1.0
  2
SOLID
 70
     1
 71
     1
 91
        1
 92
        3
 72
     0
 73
     1
 93
        4
 10
22.808203124999999
 20
24.098046874999998
 10
27.495703124999995
 20
24.098046874999998
 10
27.495703124999995
 20
25.191796874999998
 10
22.808203124999999
 20
25.191796874999998
 97
        1
330
1B0
 75
     0
 76
     1
 98
        0
  0
LWPOLYLINE
  5
1B2
102
{ACAD_REACTORS
330
1B3
102
}
100
AcDbEntity
  8
0
  6
CONTINUOUS
 62
     7
100
AcDbPolyline
 90
        6
 70
     1
 10
22.651953
 20
23.941797
 10
22.808203
 20
24.098047
 10
27.495703
 20
24.098047
 10
27.495703
 20
25.191797
 10
27.651953
 20
25.348047
 10
27.651953
 20
23.941797
  0
HATCH
  5
1B3
100
AcDbEntity
  8
0
 62
   252
100
AcDbHatch
 10
0.0
 20
0.0
 30
0.0
210
0.0
220
0.0
230
1.0
  2
SOLID
 70
     1
 71
     1
 91
        1
 92
        3
 72
     0
 73
     1
 93
        6
 10
22.651953124999999
 20
23.941796874999998
 10
22.808203124999999
 20
24.098046874999998
 10
27.495703124999995
 20
24.098046874999998
 10
27.495703124999995
 20
25.191796874999998
 10
27.651953124999999
 20
25.348046874999998
 10
27.651953124999999
 20
23.941796874999998
 97
        1
330
1B2
 75
     0
 76
     1
 98
        0
  0
LWPOLYLINE
  5
1B4
102
{ACAD_REACTORS
330
1B6
102
}
100
AcDbEntity
  8
0
  6
CONTINUOUS
 62
     7
100
AcDbPolyline
 90
        6
 70
     1
 10
22.651953
 20
23.941797
 10
22.808203
 20
24.098047
 10
22.808203
 20
25.191797
 10
27.495703
 20
25.191797
 10
27.651953
 20
25.348047
 10
22.651953
 20
25.348047
  0
LWPOLYLINE
  5
1B5
102
{ACAD_REACTORS
330
1B6
102
}
100
AcDbEntity
  8
0
  6
CONTINUOUS
 62
     7
100
AcDbPolyline
 90
       12
 70
     1
 10
26.089453
 20
24.723047
 10
26.089453
 20
24.644922
 10
27.026953
 20
24.644922
 10
27.026953
 20
24.723047
 10
27.339453
 20
24.723047
 10
27.339453
 20
24.879297
 10
27.026953
 20
24.879297
 10
27.026953
 20
24.957422
 10
26.089453
 20
24.957422
 10
26.089453
 20
24.879297
 10
25.776953
 20
24.879297
 10
25.776953
 20
24.723047
  0
HATCH
  5
1B6
100
AcDbEntity
  8
0
 62
     7
100
AcDbHatch
 10
0.0
 20
0.0
 30
0.0
210
0.0
220
0.0
230
1.0
  2
SOLID
 70
     1
 71
     1
 91
        1
 92
        3
 72
     0
 73
     1
 93
       12
 10
26.089453124999995
 20
24.723046874999998
 10
26.089453124999995
 20
24.644921874999998
 10
27.026953124999995
 20
24.644921874999998
 10
27.026953124999995
 20
24.723046874999998
 10
27.339453124999999
 20
24.723046874999998
 10
27.339453124999999
 20
24.879296874999998
 10
27.026953124999995
 20
24.879296874999998
 10
27.026953124999995
 20
24.957421874999998
 10
26.089453124999995
 20
24.957421874999998
 10
26.089453124999995
 20
24.879296874999998
 10
25.776953124999999
 20
24.879296874999998
 10
25.776953124999999
 20
24.723046874999998
 97
        2
330
1B4
330
1B5
 75
     0
 76
     1
 98
        0
  0
LWPOLYLINE
  5
1B7
102
{ACAD_REACTORS
330
1B8
102
}
100
AcDbEntity
  8
0
  6
CONTINUOUS
 62
     7
100
AcDbPolyline
 90
        4
 70
     1
 10
22.964453
 20
25.816797
 10
27.339453
 20
25.816797
 10
27.339453
 20
28.941797
 10
22.964453
 20
28.941797
  0
HATCH
  5
1B8
100
AcDbEntity
  8
0
 62
   253
100
AcDbHatch
 10
0.0
 20
0.0
 30
0.0
210
0.0
220
0.0
230
1.0
  2
SOLID
 70
     1
 71
     1
 91
        2
 92
        3
 72
     0
 73
     1
 93
        4
 10
22.964453124999999
 20
25.816796874999994
 10
27.339453124999999
 20
25.816796874999994
 10
27.339453124999999
 20
28.941796874999994
 10
22.964453124999999
 20
28.941796874999994
 97
        1
330
1B7
 92
        3
 72
     0
 73
     1
 93
        4
 10
23.120703124999999
 20
25.973046874999998
 10
27.183203124999999
 20
25.973046874999998
 10
27.183203124999999
 20
28.785546874999994
 10
23.120703124999999
 20
28.785546874999994
 97
        1
330
1B9
 75
     0
 76
     1
 98
        0
  0
LWPOLYLINE
  5
1B9
102
{ACAD_REACTORS
330
1B8
102
}
100
AcDbEntity
  8
0
  6
CONTINUOUS
 62
     7
100
AcDbPolyline
 90
        4
 70
     1
 10
23.120703
 20
25.973047
 10
27.183203
 20
25.973047
 10
27.183203
 20
28.785547
 10
23.120703
 20
28.785547
  0
LWPOLYLINE
  5
1BA
102
{ACAD_REACTORS
330
1BC
102
}
100
AcDbEntity
  8
0
  6
CONTINUOUS
 62
     7
100
AcDbPolyline
 90
        6
 70
     1
 10
23.120703
 20
25.973047
 10
23.276953
 20
26.129297
 10
27.026953
 20
26.129297
 10
27.026953
 20
28.629297
 10
27.183203
 20
28.785547
 10
27.183203
 20
25.973047
  0
LWPOLYLINE
  5
1BB
102
{ACAD_REACTORS
330
1BC
102
}
100
AcDbEntity
  8
0
  6
CONTINUOUS
 62
     7
100
AcDbPolyline
 90
        6
 70
     1
 10
23.276953
 20
26.129297
 10
23.120703
 20
25.973047
 10
23.120703
 20
28.785547
 10
27.183203
 20
28.785547
 10
27.026953
 20
28.629297
 10
23.276953
 20
28.629297
  0
HATCH
  5
1BC
100
AcDbEntity
  8
0
 62
   252
100
AcDbHatch
 10
0.0
 20
0.0
 30
0.0
210
0.0
220
0.0
230
1.0
  2
SOLID
 70
     1
 71
     1
 91
        1
 92
        3
 72
     0
 73
     1
 93
        6
 10
23.276953124999995
 20
26.129296874999998
 10
23.120703124999999
 20
25.973046874999998
 10
23.120703124999999
 20
28.785546874999994
 10
27.183203124999999
 20
28.785546874999994
 10
27.026953125000002
 20
28.629296874999998
 10
23.276953124999995
 20
28.629296874999998
 97
        2
330
1BA
330
1BB
 75
     0
 76
     1
 98
        0
  0
LWPOLYLINE
  5
1BD
102
{ACAD_REACTORS
330
1BE
102
}
100
AcDbEntity
  8
0
  6
CONTINUOUS
 62
     7
100
AcDbPolyline
 90
        4
 70
     1
 10
23.276953
 20
26.129297
 10
27.026953
 20
26.129297
 10
27.026953
 20
28.629297
 10
23.276953
 20
28.629297
  0
HATCH
  5
1BE
100
AcDbEntity
  8
0
 62
     7
100
AcDbHatch
 10
0.0
 20
0.0
 30
0.0
210
0.0
220
0.0
230
1.0
  2

 70
     1
 71
     1
 91
        1
 92
        3
 72
     0
 73
     1
 93
        4
 10
23.276953124999995
 20
26.129296874999998
 10
27.026953124999995
 20
26.129296874999998
 10
27.026953124999995
 20
28.629296874999998
 10
23.276953124999995
 20
28.629296874999998
 97
        1
330
1BD
 75
     0
 76
     1
 98
        0
  0
LWPOLYLINE
  5
1BF
102
{ACAD_REACTORS
330
1C0
102
}
100
AcDbEntity
  8
0
  6
CONTINUOUS
 62
     7
100
AcDbPolyline
 90
        4
 70
     1
 10
24.214453
 20
25.489416
 10
26.089453
 20
25.489416
 10
26.089453
 20
25.816797
 10
24.214453
 20
25.816797
  0
HATCH
  5
1C0
100
AcDbEntity
  8
0
 62
     7
100
AcDbHatch
 10
0.0
 20
0.0
 30
0.0
210
0.0
220
0.0
230
1.0
  2
SOLID
 70
     1
 71
     1
 91
        1
 92
        3
 72
     0
 73
     1
 93
        4
 10
24.214453124999999
 20
25.489415922619042
 10
26.089453124999999
 20
25.489415922619042
 10
26.089453124999999
 20
25.816796875000001
 10
24.214453124999999
 20
25.816796875000001
 97
        1
330
1BF
 75
     0
 76
     1
 98
        0
  0
LWPOLYLINE
  5
1C1
102
{ACAD_REACTORS
330
1C2
102
}
100
AcDbEntity
  8
0
  6
CONTINUOUS
 62
     7
100
AcDbPolyline
 90
        4
 70
     1
 10
22.964453
 20
24.801172
 10
23.276953
 20
24.801172
 10
23.276953
 20
25.035547
 10
22.964453
 20
25.035547
  0
HATCH
  5
1C2
100
AcDbEntity
  8
0
 62
    94
100
AcDbHatch
 10
0.0
 20
0.0
 30
0.0
210
0.0
220
0.0
230
1.0
  2
SOLID
 70
     1
 71
     1
 91
        1
 92
        3
 72
     0
 73
     1
 93
        4
 10
22.964453124999999
 20
24.801171874999998
 10
23.276953124999995
 20
24.801171874999998
 10
23.276953124999995
 20
25.035546874999998
 10
22.964453124999999
 20
25.035546874999998
 97
        1
330
1C1
 75
     0
 76
     1
 98
        0
  0
LWPOLYLINE
  5
1C3
102
{ACAD_REACTORS
330
1C4
102
}
100
AcDbEntity
  8
0
  6
CONTINUOUS
 62
     7
100
AcDbPolyline
 90
        4
 70
     1
 10
22.964453
 20
24.918359
 10
23.120703
 20
24.918359
 10
23.120703
 20
25.035547
 10
22.964453
 20
25.035547
  0
HATCH
  5
1C4
100
AcDbEntity
  8
0
 62
     3
100
AcDbHatch
 10
0.0
 20
0.0
 30
0.0
210
0.0
220
0.0
230
1.0
  2
SOLID
 70
     1
 71
     1
 91
        1
 92
        3
 72
     0
 73
     1
 93
        4
 10
22.964453124999999
 20
24.918359374999994
 10
23.120703124999999
 20
24.918359374999994
 10
23.120703124999999
 20
25.035546874999998
 10
22.964453124999999
 20
25.035546874999998
 97
        1
330
1C3
 75
     0
 76
     1
 98
        0
  0
ENDBLK
  5
1C5
100
AcDbEntity
  8
0
100
AcDbBlockEnd
  0
BLOCK
  5
1C7
100
AcDbEntity
  8
0
100
AcDbBlockBegin
  2
WWW-SERVER
 70
     0
 10
0.0
 20
0.0
 30
0.0
  3
WWW-SERVER
  1

  0
ENDBLK
  5
1C8
100
AcDbEntity
  8
0
100
AcDbBlockEnd
  0
BLOCK
  5
1CA
100
AcDbEntity
  8
0
100
AcDbBlockBegin
  2
SMARTCARD__SICH__ID-KTE
 70
     0
 10
0.0
 20
0.0
 30
0.0
  3
SMARTCARD__SICH__ID-KTE
  1

  0
ENDBLK
  5
1CB
100
AcDbEntity
  8
0
100
AcDbBlockEnd
  0
BLOCK
  5
1CD
100
AcDbEntity
  8
0
100
AcDbBlockBegin
  2
ORGANISATIONS-_EINHEIT
 70
     0
 10
0.0
 20
0.0
 30
0.0
  3
ORGANISATIONS-_EINHEIT
  1

  0
MTEXT
  5
1CE
100
AcDbEntity
  8
0
100
AcDbMText
 10
24.507031
 20
20.28047
 30
0.0
 40
1.540968
 41
12.5
 71
     5
 72
     5
  1
\C7;\fArial|b0|i0|;\H1.5409676972777;Organisatio\Pnseinheit
  0
LWPOLYLINE
  5
1CF
102
{ACAD_REACTORS
330
1D0
102
}
100
AcDbEntity
  8
0
  6
CONTINUOUS
 62
     7
100
AcDbPolyline
 90
        4
 70
     1
 10
22.207031
 20
26.18855
 10
24.607031
 20
26.18855
 10
24.607031
 20
27.879726
 10
22.207031
 20
27.879726
  0
HATCH
  5
1D0
100
AcDbEntity
  8
0
 62
   253
100
AcDbHatch
 10
0.0
 20
0.0
 30
0.0
210
0.0
220
0.0
230
1.0
  2
SOLID
 70
     1
 71
     1
 91
        4
 92
        3
 72
     0
 73
     1
 93
        4
 10
22.207031249999993
 20
26.188549632352945
 10
24.607031249999999
 20
26.188549632352945
 10
24.607031249999999
 20
27.879726102941174
 10
22.207031249999993
 20
27.879726102941163
 97
        1
330
1CF
 92
        3
 72
     0
 73
     1
 93
        4
 10
25.407031249999996
 20
26.703255514705873
 10
27.007031249999994
 20
26.703255514705873
 10
27.007031249999994
 20
27.879726102941163
 10
25.407031249999996
 20
27.879726102941163
 97
        1
330
1D1
 92
        3
 72
     0
 73
     1
 93
        4
 10
25.407031249999996
 20
24.938549632352935
 10
27.007031249999994
 20
24.938549632352935
 10
27.007031249999994
 20
26.115020220588228
 10
25.407031249999996
 20
26.115020220588228
 97
        1
330
1D2
 92
        3
 72
     0
 73
     1
 93
        4
 10
25.407031249999996
 20
23.173843749999996
 10
27.007031249999994
 20
23.173843749999996
 10
27.007031249999994
 20
24.35031433823529
 10
25.407031249999996
 20
24.35031433823529
 97
        1
330
1D3
 75
     0
 76
     1
 98
        0
  0
LWPOLYLINE
  5
1D1
102
{ACAD_REACTORS
330
1D0
102
}
100
AcDbEntity
  8
0
  6
CONTINUOUS
 62
     7
100
AcDbPolyline
 90
        4
 70
     1
 10
25.407031
 20
26.703256
 10
27.007031
 20
26.703256
 10
27.007031
 20
27.879726
 10
25.407031
 20
27.879726
  0
LWPOLYLINE
  5
1D2
102
{ACAD_REACTORS
330
1D0
102
}
100
AcDbEntity
  8
0
  6
CONTINUOUS
 62
     7
100
AcDbPolyline
 90
        4
 70
     1
 10
25.407031
 20
24.93855
 10
27.007031
 20
24.93855
 10
27.007031
 20
26.11502
 10
25.407031
 20
26.11502
  0
LWPOLYLINE
  5
1D3
102
{ACAD_REACTORS
330
1D0
102
}
100
AcDbEntity
  8
0
  6
CONTINUOUS
 62
     7
100
AcDbPolyline
 90
        4
 70
     1
 10
25.407031
 20
23.173844
 10
27.007031
 20
23.173844
 10
27.007031
 20
24.350314
 10
25.407031
 20
24.350314
  0
LWPOLYLINE
  5
1D4
102
{ACAD_REACTORS
330
1D5
102
}
100
AcDbEntity
  8
0
  6
CONTINUOUS
 62
     7
100
AcDbPolyline
 90
        4
 70
     1
 10
22.007031
 20
26.482667
 10
24.407031
 20
26.482667
 10
24.407031
 20
28.173844
 10
22.007031
 20
28.173844
  0
HATCH
  5
1D5
100
AcDbEntity
  8
0
 62
     4
100
AcDbHatch
 10
0.0
 20
0.0
 30
0.0
210
0.0
220
0.0
230
1.0
  2
SOLID
 70
     1
 71
     1
 91
        1
 92
        3
 72
     0
 73
     1
 93
        4
 10
22.007031249999997
 20
26.482667279411764
 10
24.407031249999999
 20
26.482667279411764
 10
24.407031249999999
 20
28.173843749999993
 10
22.007031249999997
 20
28.173843749999993
 97
        1
330
1D4
 75
     0
 76
     1
 98
        0
  0
LWPOLYLINE
  5
1D6
102
{ACAD_REACTORS
330
1D7
102
}
100
AcDbEntity
  8
0
  6
CONTINUOUS
 62
     7
100
AcDbPolyline
 90
        4
 70
     1
 10
25.207031
 20
25.232667
 10
26.807031
 20
25.232667
 10
26.807031
 20
26.409138
 10
25.207031
 20
26.409138
  0
HATCH
  5
1D7
100
AcDbEntity
  8
0
 62
     2
100
AcDbHatch
 10
0.0
 20
0.0
 30
0.0
210
0.0
220
0.0
230
1.0
  2
SOLID
 70
     1
 71
     1
 91
        1
 92
        3
 72
     0
 73
     1
 93
        4
 10
25.207031250000004
 20
25.232667279411768
 10
26.807031250000005
 20
25.232667279411768
 10
26.807031250000005
 20
26.409137867647061
 10
25.207031250000004
 20
26.409137867647061
 97
        1
330
1D6
 75
     0
 76
     1
 98
        0
  0
LWPOLYLINE
  5
1D8
102
{ACAD_REACTORS
330
1D9
102
}
100
AcDbEntity
  8
0
  6
CONTINUOUS
 62
     7
100
AcDbPolyline
 90
        4
 70
     1
 10
25.207031
 20
26.997373
 10
26.807031
 20
26.997373
 10
26.807031
 20
28.173844
 10
25.207031
 20
28.173844
  0
HATCH
  5
1D9
100
AcDbEntity
  8
0
 62
     3
100
AcDbHatch
 10
0.0
 20
0.0
 30
0.0
210
0.0
220
0.0
230
1.0
  2
SOLID
 70
     1
 71
     1
 91
        2
 92
        3
 72
     0
 73
     1
 93
        4
 10
25.207031250000004
 20
26.997373161764699
 10
26.807031250000005
 20
26.997373161764699
 10
26.807031250000005
 20
28.173843749999993
 10
25.207031250000004
 20
28.173843749999993
 97
        1
330
1D8
 92
        3
 72
     0
 73
     1
 93
        4
 10
25.207031250000004
 20
23.467961397058829
 10
26.807031250000005
 20
23.467961397058829
 10
26.807031250000005
 20
24.644431985294119
 10
25.207031250000004
 20
24.644431985294119
 97
        1
330
1DA
 75
     0
 76
     1
 98
        0
  0
LWPOLYLINE
  5
1DA
102
{ACAD_REACTORS
330
1D9
102
}
100
AcDbEntity
  8
0
  6
CONTINUOUS
 62
     7
100
AcDbPolyline
 90
        4
 70
     1
 10
25.207031
 20
23.467961
 10
26.807031
 20
23.467961
 10
26.807031
 20
24.644432
 10
25.207031
 20
24.644432
  0
LWPOLYLINE
  5
1DB
100
AcDbEntity
  8
0
  6
CONTINUOUS
 62
     7
100
AcDbPolyline
 90
        3
 70
     0
 10
24.802865
 20
27.585608
 10
24.802865
 20
24.056197
 10
25.207031
 20
24.056197
  0
LINE
  5
1DC
100
AcDbEntity
  8
0
  6
CONTINUOUS
 62
     7
100
AcDbLine
 10
25.207031
 20
25.820903
 30
0.0
 11
24.802865
 21
25.820903
 31
0.0
  0
LINE
  5
1DD
100
AcDbEntity
  8
0
  6
CONTINUOUS
 62
     7
100
AcDbLine
 10
24.407031
 20
27.585608
 30
0.0
 11
25.207031
 21
27.585608
 31
0.0
  0
ENDBLK
  5
1DE
100
AcDbEntity
  8
0
100
AcDbBlockEnd
  0
BLOCK
  5
1E0
100
AcDbEntity
  8
0
100
AcDbBlockBegin
  2
UNBEKANNT
 70
     0
 10
0.0
 20
0.0
 30
0.0
  3
UNBEKANNT
  1

  0
MTEXT
  5
1E1
100
AcDbEntity
  8
0
100
AcDbMText
 10
25.4
 20
21.276607
 30
0.0
 40
1.540968
 41
11.797331
 71
     5
 72
     5
  1
\C7;\fArial|b0|i0|;\H1.5409676972777;Unbekannt
  0
LWPOLYLINE
  5
1E2
102
{ACAD_REACTORS
330
1E3
102
}
100
AcDbEntity
  8
0
  6
CONTINUOUS
 62
     7
100
AcDbPolyline
 90
        2
 70
     1
 10
23.051515
 20
25.324242
 42
-1.0
 10
27.9
 20
25.324242
 42
-1.0
  0
HATCH
  5
1E3
100
AcDbEntity
  8
0
 62
   251
100
AcDbHatch
 10
0.0
 20
0.0
 30
0.0
210
0.0
220
0.0
230
1.0
  2
SOLID
 70
     1
 71
     1
 91
        1
 92
        3
 72
     1
 73
     1
 93
        2
 10
23.051515151515147
 20
25.324242424242421
 42
-0.9999999999999994
 10
27.899999999999999
 20
25.324242424242421
 42
-0.9999999999999997
 97
        1
330
1E2
 75
     0
 76
     1
 98
        0
  0
LWPOLYLINE
  5
1E4
102
{ACAD_REACTORS
330
1E5
102
}
100
AcDbEntity
  8
0
  6
CONTINUOUS
 62
     7
100
AcDbPolyline
 90
        2
 70
     1
 10
22.9
 20
25.475758
 42
-1.0
 10
27.748485
 20
25.475758
 42
-1.0
  0
HATCH
  5
1E5
100
AcDbEntity
  8
0
 62
   253
100
AcDbHatch
 10
0.0
 20
0.0
 30
0.0
210
0.0
220
0.0
230
1.0
  2

 70
     1
 71
     1
 91
        1
 92
        3
 72
     1
 73
     1
 93
        2
 10
22.899999999999995
 20
25.475757575757537
 42
-1.0000000000000071
 10
27.748484848484846
 20
25.475757575757573
 42
-0.9999999999999997
 97
        1
330
1E4
 75
     0
 76
     1
 98
        0
  0
LWPOLYLINE
  5
1E6
102
{ACAD_REACTORS
330
1E7
102
}
100
AcDbEntity
  8
0
  6
CONTINUOUS
 62
     7
100
AcDbPolyline
 90
        2
 70
     1
 10
23.24632
 20
25.475758
 42
-1.0
 10
27.402165
 20
25.475758
 42
-1.0
  0
HATCH
  5
1E7
100
AcDbEntity
  8
0
 62
     2
100
AcDbHatch
 10
0.0
 20
0.0
 30
0.0
210
0.0
220
0.0
230
1.0
  2
SOLID
 70
     1
 71
     1
 91
        1
 92
        3
 72
     1
 73
     1
 93
        2
 10
23.246320346320339
 20
25.475757575757573
 42
-0.9999999999999999
 10
27.402164502164503
 20
25.475757575757573
 42
-1.0000000000000071
 97
        1
330
1E6
 75
     0
 76
     1
 98
        0
  0
LWPOLYLINE
  5
1E8
102
{ACAD_REACTORS
330
1E9
102
}
100
AcDbEntity
  8
0
  6
CONTINUOUS
 62
     7
100
AcDbPolyline
 90
       75
 70
     1
 10
25.547942
 20
24.901651
 10
25.21071
 20
24.901651
 10
24.873477
 20
24.901651
 10
24.873477
 20
24.948706
 10
24.873477
 20
24.987919
 10
24.873477
 20
25.089872
 10
24.88132
 20
25.183982
 10
24.897005
 20
25.27025
 10
24.912691
 20
25.340833
 10
24.959746
 20
25.474156
 10
25.03033
 20
25.583952
 10
25.077385
 20
25.654535
 10
25.155812
 20
25.740803
 10
25.249923
 20
25.850599
 10
25.375405
 20
25.983922
 10
25.438146
 20
26.054505
 10
25.485201
 20
26.125088
 10
25.508729
 20
26.187828
 10
25.516572
 20
26.250569
 10
25.516572
 20
26.313309
 10
25.500887
 20
26.360364
 10
25.461673
 20
26.446632
 10
25.430303
 20
26.47016
 10
25.383247
 20
26.493688
 10
25.336192
 20
26.50153
 10
25.281293
 20
26.509373
 10
25.226395
 20
26.50153
 10
25.171497
 20
26.485845
 10
25.124441
 20
26.454475
 10
25.077385
 20
26.40742
 10
25.038172
 20
26.344679
 10
25.006802
 20
26.258411
 10
24.983274
 20
26.156458
 10
24.967589
 20
26.03882
 10
24.630356
 20
26.093718
 10
24.285281
 20
26.148615
 10
24.316652
 20
26.376049
 10
24.37155
 20
26.579956
 10
24.457819
 20
26.760334
 10
24.559773
 20
26.917185
 10
24.622514
 20
26.987768
 10
24.693097
 20
27.042666
 10
24.771523
 20
27.097564
 10
24.865635
 20
27.136776
 10
24.959746
 20
27.168147
 10
25.0617
 20
27.191674
 10
25.179339
 20
27.199517
 10
25.296979
 20
27.207359
 10
25.477359
 20
27.191674
 10
25.642054
 20
27.160304
 10
25.791063
 20
27.097564
 10
25.916545
 20
27.003453
 10
25.994971
 20
26.93287
 10
26.057712
 20
26.854445
 10
26.11261
 20
26.768177
 10
26.159666
 20
26.681909
 10
26.191037
 20
26.587798
 10
26.214564
 20
26.493688
 10
26.23025
 20
26.383892
 10
26.238092
 20
26.274096
 10
26.23025
 20
26.179986
 10
26.222407
 20
26.085875
 10
26.198879
 20
25.991765
 10
26.159666
 20
25.905497
 10
26.104768
 20
25.811386
 10
26.034184
 20
25.709433
 10
25.93223
 20
25.599637
 10
25.814591
 20
25.474156
 10
25.736165
 20
25.387888
 10
25.673424
 20
25.317306
 10
25.626368
 20
25.246723
 10
25.594998
 20
25.183982
 10
25.57147
 20
25.129084
 10
25.563627
 20
25.058501
 10
25.547942
 20
24.987919
  0
HATCH
  5
1E9
100
AcDbEntity
  8
0
 62
     7
100
AcDbHatch
 10
0.0
 20
0.0
 30
0.0
210
0.0
220
0.0
230
1.0
  2
SOLID
 70
     1
 71
     1
 91
        2
 92
        3
 72
     0
 73
     1
 93
       75
 10
25.547942240407984
 20
24.901650529959362
 10
25.210709838107093
 20
24.901650529959362
 10
24.873477435806198
 20
24.901650529959362
 10
24.873477435806198
 20
24.94870581113079
 10
24.873477435806198
 20
24.987918545440312
 10
24.873477435806198
 20
25.089871654645073
 10
24.881320049813194
 20
25.183982216987928
 10
24.897005277827187
 20
25.270250232468879
 10
24.912690505841184
 20
25.340833154226019
 10
24.95974618988317
 20
25.474156450878397
 10
25.030329715946149
 20
25.583952106945059
 10
25.077385399988131
 20
25.654535028702199
 10
25.155811540058107
 20
25.740803044183149
 10
25.249922908142079
 20
25.850598700249815
 10
25.37540473225404
 20
25.983921996902193
 10
25.438145644310023
 20
26.05450491865933
 10
25.485201328352005
 20
26.125087840416477
 10
25.508729170373002
 20
26.187828215311708
 10
25.516571784379995
 20
26.250568590206946
 10
25.516571784379995
 20
26.313308965102184
 10
25.500886556366002
 20
26.360364246273612
 10
25.461673486331012
 20
26.446632261754562
 10
25.430303030303023
 20
26.470159902340274
 10
25.38324734626104
 20
26.493687542925986
 10
25.336191662219054
 20
26.501530089787895
 10
25.281293364170072
 20
26.5093726366498
 10
25.226395066121086
 20
26.501530089787895
 10
25.171496768072103
 20
26.485844996064081
 10
25.124441084030121
 20
26.454474808616467
 10
25.077385399988131
 20
26.407419527445036
 10
25.038172329953145
 20
26.344679152549805
 10
25.006801873925156
 20
26.258411137068851
 10
24.983274031904163
 20
26.156458027864094
 10
24.967588803890166
 20
26.038819824935523
 10
24.630356401589271
 20
26.093717652968856
 10
24.28528138528138
 20
26.148615481002189
 10
24.316651841309369
 20
26.376049339997422
 10
24.371550139358352
 20
26.57995555840694
 10
24.457818893435327
 20
26.760334136230743
 10
24.559772875526292
 20
26.917185073468836
 10
24.622513787582275
 20
26.987767995225976
 10
24.693097313645254
 20
27.042665823259309
 10
24.771523453715226
 20
27.097563651292642
 10
24.865634821799201
 20
27.136776385602165
 10
24.95974618988317
 20
27.168146573049778
 10
25.061700171974138
 20
27.191674213635491
 10
25.179339382079103
 20
27.199516760497399
 10
25.296978592184065
 20
27.207359307359305
 10
25.477358714345005
 20
27.191674213635491
 10
25.64205360849196
 20
27.16030402618788
 10
25.791063274624911
 20
27.097563651292642
 10
25.916545098736872
 20
27.003453088949783
 10
25.994971238806851
 20
26.932870167192643
 10
26.05771215086283
 20
26.854444698573598
 10
26.112610448911813
 20
26.768176683092648
 10
26.159666132953799
 20
26.681908667611697
 10
26.191036588981788
 20
26.587798105268845
 10
26.214564431002781
 20
26.493687542925986
 10
26.230249659016774
 20
26.383891886859324
 10
26.238092273023774
 20
26.274096230792658
 10
26.230249659016774
 20
26.179985668449806
 10
26.222407045009781
 20
26.08587510610695
 10
26.198879202988788
 20
25.991764543764099
 10
26.159666132953799
 20
25.905496528283148
 10
26.104767834904813
 20
25.811385965940289
 10
26.034184308841834
 20
25.709432856735532
 10
25.932230326750869
 20
25.599637200668866
 10
25.814591116645904
 20
25.474156450878397
 10
25.736164976575932
 20
25.387888435397446
 10
25.673424064519949
 20
25.317305513640306
 10
25.626368380477963
 20
25.246722591883163
 10
25.594997924449974
 20
25.183982216987928
 10
25.571470082428981
 20
25.129084388954595
 10
25.563627468421984
 20
25.058501467197456
 10
25.547942240407984
 20
24.987918545440312
 97
        1
330
1E8
 92
        3
 72
     0
 73
     1
 93
        8
 10
24.849949593785205
 20
24.682059217826033
 10
25.210709838107093
 20
24.682059217826033
 10
25.571470082428981
 20
24.682059217826033
 10
25.571470082428981
 20
24.274246781006998
 10
25.571470082428981
 20
23.874276891049863
 10
25.210709838107093
 20
23.874276891049863
 10
24.849949593785205
 20
23.874276891049863
 10
24.849949593785205
 20
24.274246781006998
 97
        1
330
1EA
 75
     0
 76
     1
 98
        0
  0
LWPOLYLINE
  5
1EA
102
{ACAD_REACTORS
330
1E9
102
}
100
AcDbEntity
  8
0
  6
CONTINUOUS
 62
     7
100
AcDbPolyline
 90
        8
 70
     1
 10
24.84995
 20
24.682059
 10
25.21071
 20
24.682059
 10
25.57147
 20
24.682059
 10
25.57147
 20
24.274247
 10
25.57147
 20
23.874277
 10
25.21071
 20
23.874277
 10
24.84995
 20
23.874277
 10
24.84995
 20
24.274247
  0
ENDBLK
  5
1EB
100
AcDbEntity
  8
0
100
AcDbBlockEnd
  0
BLOCK
  5
1ED
100
AcDbEntity
  8
0
100
AcDbBlockBegin
  2
ALLGEMEINES_OBJEKT
 70
     0
 10
0.0
 20
0.0
 30
0.0
  3
ALLGEMEINES_OBJEKT
  1

  0
MTEXT
  5
1EE
100
AcDbEntity
  8
0
100
AcDbMText
 10
26.491406
 20
22.62997
 30
0.0
 40
1.540968
 41
12.5
 71
     5
 72
     5
  1
\C7;\fArial|b0|i0|;\H1.5409676972777;Allgemeines \PObjekt
  0
LWPOLYLINE
  5
1EF
102
{ACAD_REACTORS
330
1F0
102
}
100
AcDbEntity
  8
0
  6
CONTINUOUS
 62
     7
100
AcDbPolyline
 90
        7
 70
     1
 10
24.225781
 20
29.917969
 10
24.225781
 20
25.542969
 10
29.225781
 20
25.542969
 10
29.225781
 20
29.917969
 10
26.725781
 20
29.917969
 10
26.725781
 20
30.542969
 10
24.225781
 20
30.542969
  0
HATCH
  5
1F0
100
AcDbEntity
  8
0
 62
   252
100
AcDbHatch
 10
0.0
 20
0.0
 30
0.0
210
0.0
220
0.0
230
1.0
  2
SOLID
 70
     1
 71
     1
 91
        1
 92
        3
 72
     0
 73
     1
 93
        7
 10
24.225781249999997
 20
29.917968749999996
 10
24.225781249999997
 20
25.54296875
 10
29.225781249999997
 20
25.54296875
 10
29.225781249999997
 20
29.917968749999996
 10
26.725781249999997
 20
29.917968749999996
 10
26.725781249999997
 20
30.542968749999996
 10
24.225781249999997
 20
30.542968749999996
 97
        1
330
1EF
 75
     0
 76
     1
 98
        0
  0
LWPOLYLINE
  5
1F1
102
{ACAD_REACTORS
330
1F2
102
}
100
AcDbEntity
  8
0
  6
CONTINUOUS
 62
     7
100
AcDbPolyline
 90
        7
 70
     1
 10
23.991406
 20
30.152344
 10
23.991406
 20
25.777344
 10
28.991406
 20
25.777344
 10
28.991406
 20
30.152344
 10
26.491406
 20
30.152344
 10
26.491406
 20
30.777344
 10
23.991406
 20
30.777344
  0
HATCH
  5
1F2
100
AcDbEntity
  8
0
 62
     7
100
AcDbHatch
 10
0.0
 20
0.0
 30
0.0
210
0.0
220
0.0
230
1.0
  2

 70
     1
 71
     1
 91
        1
 92
        3
 72
     0
 73
     1
 93
        7
 10
23.991406249999997
 20
30.15234375
 10
23.991406249999997
 20
25.777343749999996
 10
28.991406250000001
 20
25.777343749999996
 10
28.991406250000001
 20
30.15234375
 10
26.491406249999997
 20
30.15234375
 10
26.491406249999997
 20
30.77734375
 10
23.991406249999997
 20
30.77734375
 97
        1
330
1F1
 75
     0
 76
     1
 98
        0
  0
LINE
  5
1F3
100
AcDbEntity
  8
0
  6
CONTINUOUS
 62
     4
100
AcDbLine
 10
28.991406
 20
27.798177
 30
0.0
 11
24.616406
 21
27.798177
 31
0.0
  0
LINE
  5
1F4
100
AcDbEntity
  8
0
  6
CONTINUOUS
 62
     4
100
AcDbLine
 10
28.991406
 20
28.423177
 30
0.0
 11
24.616406
 21
28.423177
 31
0.0
  0
LINE
  5
1F5
100
AcDbEntity
  8
0
  6
CONTINUOUS
 62
     4
100
AcDbLine
 10
28.991406
 20
29.048177
 30
0.0
 11
24.616406
 21
29.048177
 31
0.0
  0
LINE
  5
1F6
100
AcDbEntity
  8
0
  6
CONTINUOUS
 62
     4
100
AcDbLine
 10
28.991406
 20
29.673177
 30
0.0
 11
24.616406
 21
29.673177
 31
0.0
  0
LINE
  5
1F7
100
AcDbEntity
  8
0
  6
CONTINUOUS
 62
     4
100
AcDbLine
 10
28.991406
 20
26.548177
 30
0.0
 11
24.616406
 21
26.548177
 31
0.0
  0
LINE
  5
1F8
100
AcDbEntity
  8
0
  6
CONTINUOUS
 62
     4
100
AcDbLine
 10
28.991406
 20
27.173177
 30
0.0
 11
24.616406
 21
27.173177
 31
0.0
  0
ENDBLK
  5
1F9
100
AcDbEntity
  8
0
100
AcDbBlockEnd
  0
BLOCK
  5
1FB
100
AcDbEntity
  8
0
100
AcDbBlockBegin
  2
VERZEICHNIS-_VERBINDER
 70
     0
 10
0.0
 20
0.0
 30
0.0
  3
VERZEICHNIS-_VERBINDER
  1

  0
LINE
  5
1FC
100
AcDbEntity
  8
0
  6
CONTINUOUS
 62
     7
100
AcDbLine
 10
20.0
 20
30.0
 30
0.0
 11
30.0
 21
20.0
 31
0.0
  0
ENDBLK
  5
1FD
100
AcDbEntity
  8
0
100
AcDbBlockEnd
  0
BLOCK
  5
1FF
100
AcDbEntity
  8
0
100
AcDbBlockBegin
  2
WWW-_CLUSTER
 70
     0
 10
0.0
 20
0.0
 30
0.0
  3
WWW-_CLUSTER
  1

  0
ENDBLK
  5
200
100
AcDbEntity
  8
0
100
AcDbBlockEnd
  0
BLOCK
  5
202
100
AcDbEntity
  8
0
100
AcDbBlockBegin
  2
DF\U+00DC-_VERBINDUNG
 70
     0
 10
0.0
 20
0.0
 30
0.0
  3
DF\U+00DC-_VERBINDUNG
  1

  0
LWPOLYLINE
  5
203
102
{ACAD_REACTORS
330
204
102
}
100
AcDbEntity
  8
0
  6
CONTINUOUS
 62
     7
100
AcDbPolyline
 90
        6
 70
     1
 10
0.169333
 20
9.553222
 10
16.044333
 20
12.728222
 10
13.663083
 20
8.283222
 10
25.569333
 20
9.553222
 10
9.694333
 20
6.378222
 10
12.075583
 20
10.823222
  0
HATCH
  5
204
100
AcDbEntity
  8
0
 62
     2
100
AcDbHatch
 10
0.0
 20
0.0
 30
0.0
210
0.0
220
0.0
230
1.0
  2
SOLID
 70
     1
 71
     1
 91
        1
 92
        3
 72
     0
 73
     1
 93
        6
 10
0.1693333333333344
 20
9.5532222222222192
 10
16.044333333333334
 20
12.72822222222222
 10
13.663083333333333
 20
8.283222222222216
 10
25.569333333333336
 20
9.5532222222222192
 10
9.6943333333333346
 20
6.3782222222222194
 10
12.075583333333334
 20
10.823222222222219
 97
        1
330
203
 75
     0
 76
     1
 98
        0
  0
ENDBLK
  5
205
100
AcDbEntity
  8
0
100
AcDbBlockEnd
  0
BLOCK
  5
207
100
AcDbEntity
  8
0
100
AcDbBlockBegin
  2
PEER-TO-PEER
 70
     2
 10
0.0
 20
0.0
 30
0.0
  3
PEER-TO-PEER
  1

  0
ATTDEF
  5
208
100
AcDbEntity
  8
0
100
AcDbText
 10
13.208
 20
19.558
 30
0.0
 40
0.2
  1

100
AcDbAttributeDefinition
  3
Hersteller
  2
MANUFACTURER
 70
     0
  0
ATTDEF
  5
209
100
AcDbEntity
  8
0
100
AcDbText
 10
13.208
 20
19.558
 30
0.0
 40
0.2
  1

100
AcDbAttributeDefinition
  3
Produktnummer
  2
PRODUCTNUMBER
 70
     0
  0
ATTDEF
  5
20A
100
AcDbEntity
  8
0
100
AcDbText
 10
13.208
 20
19.558
 30
0.0
 40
0.2
  1

100
AcDbAttributeDefinition
  3
Artikelnummer
  2
PARTNUMBER
 70
     0
  0
ATTDEF
  5
20B
100
AcDbEntity
  8
0
100
AcDbText
 10
13.208
 20
19.558
 30
0.0
 40
0.2
  1
Peer-to-Peer
100
AcDbAttributeDefinition
  3
Produktbeschreibung
  2
PRODUCTDESCRIPTION
 70
     0
  0
LWPOLYLINE
  5
20D
100
AcDbEntity
  8
0
  6
DOT
 62
     7
100
AcDbPolyline
 90
        4
 70
     1
 10
13.208
 20
7.058
 10
25.708
 20
19.558
 10
13.208
 20
32.058
 10
0.708
 20
19.558
  0
MTEXT
  5
20E
100
AcDbEntity
  8
0
100
AcDbMText
 10
13.208
 20
19.558
 30
0.0
 40
2.054647
 41
25.0
 71
     5
 72
     5
  1
\C7;\fArial|b0|i0|;\H2.0546471100301;Peer-to-Peer
  0
ENDBLK
  5
20F
100
AcDbEntity
  8
0
100
AcDbBlockEnd
  0
BLOCK
  5
211
100
AcDbEntity
  8
0
100
AcDbBlockBegin
  2
MASTER_47
 70
     0
 10
0.0
 20
0.0
 30
0.0
  3
MASTER_47
  1

  0
LWPOLYLINE
  5
212
102
{ACAD_REACTORS
330
406
102
}
100
AcDbEntity
  8
0
  6
CONTINUOUS
 62
     7
100
AcDbPolyline
 90
        2
 70
     1
 10
28.625
 20
0.966667
 10
28.625
 20
10.583333
  0
LWPOLYLINE
  5
213
102
{ACAD_REACTORS
330
406
102
}
100
AcDbEntity
  8
0
  6
CONTINUOUS
 62
     7
100
AcDbPolyline
 90
        2
 70
     1
 10
0.0
 20
0.966667
 10
0.0
 20
10.583333
  0
LINE
  5
214
100
AcDbEntity
  8
0
  6
CONTINUOUS
 62
     7
100
AcDbLine
 10
37.08828
 20
5.2
 30
0.0
 11
28.625
 21
5.2
 31
0.0
  0
LINE
  5
215
100
AcDbEntity
  8
0
  6
CONTINUOUS
 62
     7
100
AcDbLine
 10
-8.46328
 20
5.2
 30
0.0
 11
0.0
 21
5.2
 31
0.0
  0
MTEXT
  5
216
100
AcDbEntity
  8
0
100
AcDbMText
 10
16.134091
 20
10.299565
 30
0.0
 40
1.540968
 41
20.529775
 71
     5
 72
     5
  1
\C7;\fArial|b0|i0|;\H1.5409676972777;28,63mm.
  0
ENDBLK
  5
217
100
AcDbEntity
  8
0
100
AcDbBlockEnd
  0
BLOCK
  5
219
100
AcDbEntity
  8
0
100
AcDbBlockBegin
  2
MASTER_48
 70
     2
 10
0.0
 20
0.0
 30
0.0
  3
MASTER_48
  1

  0
LWPOLYLINE
  5
21A
100
AcDbEntity
  8
0
  6
CONTINUOUS
 62
     7
100
AcDbPolyline
 90
        3
 70
     0
 10
58.5
 20
12.804444
 10
18.5
 20
12.804444
 10
0.0
 20
0.0
  0
MTEXT
  5
21B
100
AcDbEntity
  8
0
100
AcDbMText
 10
-6.616381
 20
0.0
 30
0.0
 40
1.540968
 41
13.232762
 71
     5
 72
     5
  1
\C7;\fArial|b0|i0|;\H1.5409676972777;M6
  0
ENDBLK
  5
21C
100
AcDbEntity
  8
0
100
AcDbBlockEnd
  0
BLOCK
  5
21E
100
AcDbEntity
  8
0
100
AcDbBlockBegin
  2
GEWINDELOCH_1
 70
     0
 10
0.0
 20
0.0
 30
0.0
  3
GEWINDELOCH_1
  1

  0
LWPOLYLINE
  5
21F
102
{ACAD_REACTORS
330
406
102
}
100
AcDbEntity
  8
0
  6
CONTINUOUS
 62
     7
100
AcDbPolyline
 90
        2
 70
     1
 10
23.25
 20
25.0
 42
-1.0
 10
26.75
 20
25.0
 42
-1.0
  0
LWPOLYLINE
  5
220
100
AcDbEntity
  8
0
  6
CONTINUOUS
 62
     7
100
AcDbPolyline
 90
        4
 70
     1
 10
26.606969
 20
26.915111
 42
-0.895043
 10
23.776053
 20
22.763495
 42
0.895043
 10
26.606969
 20
26.915111
 42
0.895043
 10
23.010009
 20
23.406283
 42
-0.895043
  0
ENDBLK
  5
221
100
AcDbEntity
  8
0
100
AcDbBlockEnd
  0
BLOCK
  5
223
100
AcDbEntity
  8
0
100
AcDbBlockBegin
  2
MASTER_50
 70
     0
 10
0.0
 20
0.0
 30
0.0
  3
MASTER_50
  1

  0
LWPOLYLINE
  5
224
102
{ACAD_REACTORS
330
406
102
}
100
AcDbEntity
  8
0
  6
CONTINUOUS
 62
     7
100
AcDbPolyline
 90
        2
 70
     1
 10
25.5
 20
-11.533333
 10
25.5
 20
10.583333
  0
LWPOLYLINE
  5
225
102
{ACAD_REACTORS
330
406
102
}
100
AcDbEntity
  8
0
  6
CONTINUOUS
 62
     7
100
AcDbPolyline
 90
        2
 70
     1
 10
0.0
 20
-11.533333
 10
0.0
 20
10.583333
  0
LINE
  5
226
100
AcDbEntity
  8
0
  6
CONTINUOUS
 62
     7
100
AcDbLine
 10
33.96328
 20
-7.3
 30
0.0
 11
25.5
 21
-7.3
 31
0.0
  0
LINE
  5
227
100
AcDbEntity
  8
0
  6
CONTINUOUS
 62
     7
100
AcDbLine
 10
-8.46328
 20
-7.3
 30
0.0
 11
0.0
 21
-7.3
 31
0.0
  0
MTEXT
  5
228
100
AcDbEntity
  8
0
100
AcDbMText
 10
16.392857
 20
-3.700435
 30
0.0
 40
1.540968
 41
20.529775
 71
     5
 72
     5
  1
\C7;\fArial|b0|i0|;\H1.5409676972777;25,50mm.
  0
ENDBLK
  5
229
100
AcDbEntity
  8
0
100
AcDbBlockEnd
  0
BLOCK
  5
22B
100
AcDbEntity
  8
0
100
AcDbBlockBegin
  2
MASTER_51
 70
     2
 10
0.0
 20
0.0
 30
0.0
  3
MASTER_51
  1

  0
LWPOLYLINE
  5
22C
102
{ACAD_REACTORS
330
406
102
}
100
AcDbEntity
  8
0
  6
CONTINUOUS
 62
     7
100
AcDbPolyline
 90
        3
 70
     1
 10
0.0
 20
1.5
 10
1.2
 20
1.5
 10
1.2
 20
0.030306
 42
2.805884
  0
CIRCLE
  5
22D
102
{ACAD_REACTORS
330
406
102
}
100
AcDbEntity
  8
0
  6
CONTINUOUS
 62
     7
100
AcDbCircle
 10
1.5
 20
1.5
 30
0.0
 40
1.35
  0
CIRCLE
  5
22E
102
{ACAD_REACTORS
330
406
102
}
100
AcDbEntity
  8
0
  6
CONTINUOUS
 62
     7
100
AcDbCircle
 10
1.5
 20
1.5
 30
0.0
 40
1.2
  0
ENDBLK
  5
22F
100
AcDbEntity
  8
0
100
AcDbBlockEnd
  0
BLOCK
  5
231
100
AcDbEntity
  8
0
100
AcDbBlockBegin
  2
MASTER_52
 70
     0
 10
0.0
 20
0.0
 30
0.0
  3
MASTER_52
  1

  0
LWPOLYLINE
  5
232
102
{ACAD_REACTORS
330
406
102
}
100
AcDbEntity
  8
0
  6
CONTINUOUS
 62
     7
100
AcDbPolyline
 90
        3
 70
     1
 10
0.0
 20
3.0
 10
2.4
 20
3.0
 10
2.4
 20
0.060612
 42
2.805884
  0
CIRCLE
  5
233
102
{ACAD_REACTORS
330
406
102
}
100
AcDbEntity
  8
0
  6
CONTINUOUS
 62
     7
100
AcDbCircle
 10
3.0
 20
3.0
 30
0.0
 40
2.85
  0
CIRCLE
  5
234
102
{ACAD_REACTORS
330
406
102
}
100
AcDbEntity
  8
0
  6
CONTINUOUS
 62
     7
100
AcDbCircle
 10
3.0
 20
3.0
 30
0.0
 40
2.4
  0
ENDBLK
  5
235
100
AcDbEntity
  8
0
100
AcDbBlockEnd
  0
BLOCK
  5
237
100
AcDbEntity
  8
0
100
AcDbBlockBegin
  2
MASTER_53
 70
     0
 10
0.0
 20
0.0
 30
0.0
  3
MASTER_53
  1

  0
LWPOLYLINE
  5
238
102
{ACAD_REACTORS
330
406
102
}
100
AcDbEntity
  8
0
  6
CONTINUOUS
 62
     7
100
AcDbPolyline
 90
        2
 70
     1
 10
-11.533333
 20
0.0
 10
10.583333
 20
0.0
  0
LWPOLYLINE
  5
239
102
{ACAD_REACTORS
330
406
102
}
100
AcDbEntity
  8
0
  6
CONTINUOUS
 62
     7
100
AcDbPolyline
 90
        2
 70
     1
 10
-11.533333
 20
27.0
 10
10.583333
 20
27.0
  0
LINE
  5
23A
100
AcDbEntity
  8
0
  6
CONTINUOUS
 62
     7
100
AcDbLine
 10
-7.3
 20
-8.46328
 30
0.0
 11
-7.3
 21
0.0
 31
0.0
  0
LINE
  5
23B
100
AcDbEntity
  8
0
  6
CONTINUOUS
 62
     7
100
AcDbLine
 10
-7.3
 20
35.46328
 30
0.0
 11
-7.3
 21
27.0
 31
0.0
  0
MTEXT
  5
23C
100
AcDbEntity
  8
0
100
AcDbMText
 10
-10.899564
 20
13.0
 30
0.0
 40
1.540968
 41
20.529775
 71
     5
 72
     5
  1
\C7;\fArial|b0|i0|;\H1.5409676972777;27,00mm.
 11
0.0
 21
1.0
 31
0.0
  0
ENDBLK
  5
23D
100
AcDbEntity
  8
0
100
AcDbBlockEnd
  0
BLOCK
  5
23F
100
AcDbEntity
  8
0
100
AcDbBlockBegin
  2
MASTER_54
 70
     2
 10
0.0
 20
0.0
 30
0.0
  3
MASTER_54
  1

  0
CIRCLE
  5
240
100
AcDbEntity
  8
0
  6
CONTINUOUS
 62
     7
100
AcDbCircle
 10
3.0
 20
3.0
 30
0.0
 40
3.0
  0
LINE
  5
241
100
AcDbEntity
  8
0
  6
CONTINUOUS
 62
     7
100
AcDbLine
 10
3.0
 20
0.0
 30
0.0
 11
3.0
 21
6.0
 31
0.0
  0
LINE
  5
242
100
AcDbEntity
  8
0
  6
CONTINUOUS
 62
     7
100
AcDbLine
 10
0.0
 20
3.0
 30
0.0
 11
6.0
 21
3.0
 31
0.0
  0
ENDBLK
  5
243
100
AcDbEntity
  8
0
100
AcDbBlockEnd
  0
BLOCK
  5
245
100
AcDbEntity
  8
0
100
AcDbBlockBegin
  2
CIRCLE_45
 70
     0
 10
0.0
 20
0.0
 30
0.0
  3
CIRCLE_45
  1

  0
LWPOLYLINE
  5
246
102
{ACAD_REACTORS
330
406
102
}
100
AcDbEntity
  8
0
  6
CONTINUOUS
 62
     7
100
AcDbPolyline
 90
        2
 70
     1
 10
30.0
 20
50.0
 42
-1.0
 10
70.0
 20
50.0
 42
-1.0
  0
ENDBLK
  5
247
100
AcDbEntity
  8
0
100
AcDbBlockEnd
  0
BLOCK
  5
249
100
AcDbEntity
  8
0
100
AcDbBlockBegin
  2
RECTANGLE_67
 70
     0
 10
0.0
 20
0.0
 30
0.0
  3
RECTANGLE_67
  1

  0
LWPOLYLINE
  5
24A
102
{ACAD_REACTORS
330
406
102
}
100
AcDbEntity
  8
0
  6
CONTINUOUS
 62
     7
100
AcDbPolyline
 90
        4
 70
     1
 10
30.0
 20
35.0
 10
70.0
 20
35.0
 10
70.0
 20
65.0
 10
30.0
 20
65.0
  0
ENDBLK
  5
24B
100
AcDbEntity
  8
0
100
AcDbBlockEnd
  0
BLOCK
  5
24D
100
AcDbEntity
  8
0
100
AcDbBlockBegin
  2
RECTANGLE_68
 70
     0
 10
0.0
 20
0.0
 30
0.0
  3
RECTANGLE_68
  1

  0
LWPOLYLINE
  5
24E
102
{ACAD_REACTORS
330
406
102
}
100
AcDbEntity
  8
0
  6
CONTINUOUS
 62
     7
100
AcDbPolyline
 90
        4
 70
     1
 10
30.0
 20
35.0
 10
70.0
 20
35.0
 10
70.0
 20
65.0
 10
30.0
 20
65.0
  0
ENDBLK
  5
24F
100
AcDbEntity
  8
0
100
AcDbBlockEnd
  0
BLOCK
  5
251
100
AcDbEntity
  8
0
100
AcDbBlockBegin
  2
CIRCLE_65
 70
     0
 10
0.0
 20
0.0
 30
0.0
  3
CIRCLE_65
  1

  0
LWPOLYLINE
  5
252
102
{ACAD_REACTORS
330
406
102
}
100
AcDbEntity
  8
0
  6
CONTINUOUS
 62
     7
100
AcDbPolyline
 90
        2
 70
     1
 10
30.0
 20
50.0
 42
-1.0
 10
70.0
 20
50.0
 42
-1.0
  0
ENDBLK
  5
253
100
AcDbEntity
  8
0
100
AcDbBlockEnd
  0
BLOCK
  5
255
100
AcDbEntity
  8
0
100
AcDbBlockBegin
  2
SQUARE_69
 70
     0
 10
0.0
 20
0.0
 30
0.0
  3
SQUARE_69
  1

  0
LWPOLYLINE
  5
256
102
{ACAD_REACTORS
330
406
102
}
100
AcDbEntity
  8
0
  6
CONTINUOUS
 62
     7
100
AcDbPolyline
 90
        4
 70
     1
 10
30.0
 20
30.0
 10
70.0
 20
30.0
 10
70.0
 20
70.0
 10
30.0
 20
70.0
  0
ENDBLK
  5
257
100
AcDbEntity
  8
0
100
AcDbBlockEnd
  0
BLOCK
  5
259
100
AcDbEntity
  8
0
100
AcDbBlockBegin
  2
MASTER_60
 70
     0
 10
0.0
 20
0.0
 30
0.0
  3
MASTER_60
  1

  0
LWPOLYLINE
  5
25A
102
{ACAD_REACTORS
330
406
102
}
100
AcDbEntity
  8
0
  6
CONTINUOUS
 62
     7
100
AcDbPolyline
 90
        2
 70
     1
 10
-11.533333
 20
0.0
 10
10.583333
 20
0.0
  0
LWPOLYLINE
  5
25B
102
{ACAD_REACTORS
330
406
102
}
100
AcDbEntity
  8
0
  6
CONTINUOUS
 62
     7
100
AcDbPolyline
 90
        2
 70
     1
 10
-11.533333
 20
27.0
 10
10.583333
 20
27.0
  0
LINE
  5
25C
100
AcDbEntity
  8
0
  6
CONTINUOUS
 62
     7
100
AcDbLine
 10
-7.3
 20
-8.46328
 30
0.0
 11
-7.3
 21
0.0
 31
0.0
  0
LINE
  5
25D
100
AcDbEntity
  8
0
  6
CONTINUOUS
 62
     7
100
AcDbLine
 10
-7.3
 20
35.46328
 30
0.0
 11
-7.3
 21
27.0
 31
0.0
  0
MTEXT
  5
25E
100
AcDbEntity
  8
0
100
AcDbMText
 10
-10.899564
 20
13.0
 30
0.0
 40
1.540968
 41
20.529775
 71
     5
 72
     5
  1
\C7;\fArial|b0|i0|;\H1.5409676972777;27,00mm.
 11
0.0
 21
1.0
 31
0.0
  0
ENDBLK
  5
25F
100
AcDbEntity
  8
0
100
AcDbBlockEnd
  0
BLOCK
  5
261
100
AcDbEntity
  8
0
100
AcDbBlockBegin
  2
MASTER_61
 70
     2
 10
0.0
 20
0.0
 30
0.0
  3
MASTER_61
  1

  0
LWPOLYLINE
  5
263
100
AcDbEntity
  8
0
  6
DASHED
 62
     7
100
AcDbPolyline
 90
        4
 70
     1
 10
0.0
 20
0.0
 10
10.0
 20
0.0
 10
10.0
 20
8.0
 10
0.0
 20
8.0
  0
LWPOLYLINE
  5
264
102
{ACAD_REACTORS
330
406
102
}
100
AcDbEntity
  8
0
  6
CONTINUOUS
 62
     7
100
AcDbPolyline
 90
        4
 70
     1
 10
1.0
 20
0.0
 10
9.0
 20
0.0
 10
9.0
 20
8.0
 10
1.0
 20
8.0
  0
ENDBLK
  5
265
100
AcDbEntity
  8
0
100
AcDbBlockEnd
  0
BLOCK
  5
267
100
AcDbEntity
  8
0
100
AcDbBlockBegin
  2
CIRCLE_77
 70
     0
 10
0.0
 20
0.0
 30
0.0
  3
CIRCLE_77
  1

  0
LWPOLYLINE
  5
268
102
{ACAD_REACTORS
330
406
102
}
100
AcDbEntity
  8
0
  6
CONTINUOUS
 62
     7
100
AcDbPolyline
 90
        2
 70
     1
 10
30.0
 20
50.0
 42
-1.0
 10
70.0
 20
50.0
 42
-1.0
  0
ENDBLK
  5
269
100
AcDbEntity
  8
0
100
AcDbBlockEnd
  0
BLOCK
  5
26B
100
AcDbEntity
  8
0
100
AcDbBlockBegin
  2
RECTANGLE_79
 70
     0
 10
0.0
 20
0.0
 30
0.0
  3
RECTANGLE_79
  1

  0
LWPOLYLINE
  5
26C
102
{ACAD_REACTORS
330
406
102
}
100
AcDbEntity
  8
0
  6
CONTINUOUS
 62
     7
100
AcDbPolyline
 90
        4
 70
     1
 10
30.0
 20
35.0
 10
70.0
 20
35.0
 10
70.0
 20
65.0
 10
30.0
 20
65.0
  0
ENDBLK
  5
26D
100
AcDbEntity
  8
0
100
AcDbBlockEnd
  0
BLOCK
  5
26F
100
AcDbEntity
  8
0
100
AcDbBlockBegin
  2
MASTER_64
 70
     0
 10
0.0
 20
0.0
 30
0.0
  3
MASTER_64
  1

  0
LWPOLYLINE
  5
270
102
{ACAD_REACTORS
330
406
102
}
100
AcDbEntity
  8
0
  6
CONTINUOUS
 62
     7
100
AcDbPolyline
 90
        3
 70
     1
 10
0.0
 20
2.5
 10
2.0
 20
2.5
 10
2.0
 20
0.05051
 42
2.805884
  0
CIRCLE
  5
271
102
{ACAD_REACTORS
330
406
102
}
100
AcDbEntity
  8
0
  6
CONTINUOUS
 62
     7
100
AcDbCircle
 10
2.5
 20
2.5
 30
0.0
 40
2.25
  0
CIRCLE
  5
272
102
{ACAD_REACTORS
330
406
102
}
100
AcDbEntity
  8
0
  6
CONTINUOUS
 62
     7
100
AcDbCircle
 10
2.5
 20
2.5
 30
0.0
 40
2.0
  0
ENDBLK
  5
273
100
AcDbEntity
  8
0
100
AcDbBlockEnd
  0
BLOCK
  5
275
100
AcDbEntity
  8
0
100
AcDbBlockBegin
  2
MASTER_65
 70
     0
 10
0.0
 20
0.0
 30
0.0
  3
MASTER_65
  1

  0
LWPOLYLINE
  5
276
102
{ACAD_REACTORS
330
406
102
}
100
AcDbEntity
  8
0
  6
CONTINUOUS
 62
     7
100
AcDbPolyline
 90
        2
 70
     1
 10
16.5
 20
-10.875
 10
16.5
 20
10.583333
  0
LWPOLYLINE
  5
277
102
{ACAD_REACTORS
330
406
102
}
100
AcDbEntity
  8
0
  6
CONTINUOUS
 62
     7
100
AcDbPolyline
 90
        2
 70
     1
 10
0.0
 20
-10.875
 10
0.0
 20
10.583333
  0
LINE
  5
278
100
AcDbEntity
  8
0
  6
CONTINUOUS
 62
     7
100
AcDbLine
 10
24.96328
 20
-6.641667
 30
0.0
 11
16.5
 21
-6.641667
 31
0.0
  0
LINE
  5
279
100
AcDbEntity
  8
0
  6
CONTINUOUS
 62
     7
100
AcDbLine
 10
-8.46328
 20
-6.641667
 30
0.0
 11
0.0
 21
-6.641667
 31
0.0
  0
MTEXT
  5
27A
100
AcDbEntity
  8
0
100
AcDbMText
 10
9.3
 20
-1.542102
 30
0.0
 40
1.540968
 41
19.353684
 71
     5
 72
     5
  1
\C7;\fArial|b0|i0|;\H1.5409676972777;16,50mm
  0
ENDBLK
  5
27B
100
AcDbEntity
  8
0
100
AcDbBlockEnd
  0
BLOCK
  5
27D
100
AcDbEntity
  8
0
100
AcDbBlockBegin
  2
MASTER_66
 70
     2
 10
0.0
 20
0.0
 30
0.0
  3
MASTER_66
  1

  0
LWPOLYLINE
  5
27E
100
AcDbEntity
  8
0
  6
CONTINUOUS
 62
     7
100
AcDbPolyline
 90
        3
 70
     0
 10
0.0
 20
70.0
 10
20.0
 20
70.0
 10
32.581903
 20
0.0
  0
MTEXT
  5
27F
100
AcDbEntity
  8
0
100
AcDbMText
 10
-9.519111
 20
0.0
 30
0.0
 40
2.054647
 41
19.038221
 71
     5
 72
     5
  1
\C7;\fArial|b0|i0|;\H2.0546471100301;XXX
  0
ENDBLK
  5
280
100
AcDbEntity
  8
0
100
AcDbBlockEnd
  0
BLOCK
  5
282
100
AcDbEntity
  8
0
100
AcDbBlockBegin
  2
RECHTECK
 70
     0
 10
0.0
 20
0.0
 30
0.0
  3
RECHTECK
  1

  0
LWPOLYLINE
  5
283
102
{ACAD_REACTORS
330
406
102
}
100
AcDbEntity
  8
0
  6
CONTINUOUS
 62
     7
100
AcDbPolyline
 90
        4
 70
     1
 10
30.0
 20
35.0
 10
70.0
 20
35.0
 10
70.0
 20
65.0
 10
30.0
 20
65.0
  0
ENDBLK
  5
284
100
AcDbEntity
  8
0
100
AcDbBlockEnd
  0
BLOCK
  5
286
100
AcDbEntity
  8
0
100
AcDbBlockBegin
  2
CIRCLE_70
 70
     0
 10
0.0
 20
0.0
 30
0.0
  3
CIRCLE_70
  1

  0
LWPOLYLINE
  5
287
102
{ACAD_REACTORS
330
406
102
}
100
AcDbEntity
  8
0
  6
CONTINUOUS
 62
     7
100
AcDbPolyline
 90
        2
 70
     1
 10
30.0
 20
50.0
 42
-1.0
 10
70.0
 20
50.0
 42
-1.0
  0
ENDBLK
  5
288
100
AcDbEntity
  8
0
100
AcDbBlockEnd
  0
BLOCK
  5
28A
100
AcDbEntity
  8
0
100
AcDbBlockBegin
  2
CIRCLE_62
 70
     0
 10
0.0
 20
0.0
 30
0.0
  3
CIRCLE_62
  1

  0
LWPOLYLINE
  5
28B
102
{ACAD_REACTORS
330
406
102
}
100
AcDbEntity
  8
0
  6
CONTINUOUS
 62
     7
100
AcDbPolyline
 90
        2
 70
     1
 10
30.0
 20
50.0
 42
-1.0
 10
70.0
 20
50.0
 42
-1.0
  0
ENDBLK
  5
28C
100
AcDbEntity
  8
0
100
AcDbBlockEnd
  0
BLOCK
  5
28E
100
AcDbEntity
  8
0
100
AcDbBlockBegin
  2
MASTER_70
 70
     0
 10
0.0
 20
0.0
 30
0.0
  3
MASTER_70
  1

  0
LWPOLYLINE
  5
28F
102
{ACAD_REACTORS
330
406
102
}
100
AcDbEntity
  8
0
  6
CONTINUOUS
 62
     7
100
AcDbPolyline
 90
        2
 70
     1
 10
16.5
 20
-10.875
 10
16.5
 20
10.583333
  0
LWPOLYLINE
  5
290
102
{ACAD_REACTORS
330
406
102
}
100
AcDbEntity
  8
0
  6
CONTINUOUS
 62
     7
100
AcDbPolyline
 90
        2
 70
     1
 10
0.0
 20
-10.875
 10
0.0
 20
10.583333
  0
LINE
  5
291
100
AcDbEntity
  8
0
  6
CONTINUOUS
 62
     7
100
AcDbLine
 10
24.96328
 20
-6.641667
 30
0.0
 11
16.5
 21
-6.641667
 31
0.0
  0
LINE
  5
292
100
AcDbEntity
  8
0
  6
CONTINUOUS
 62
     7
100
AcDbLine
 10
-8.46328
 20
-6.641667
 30
0.0
 11
0.0
 21
-6.641667
 31
0.0
  0
MTEXT
  5
293
100
AcDbEntity
  8
0
100
AcDbMText
 10
9.3
 20
-1.542102
 30
0.0
 40
1.540968
 41
19.353684
 71
     5
 72
     5
  1
\C7;\fArial|b0|i0|;\H1.5409676972777;16,50mm
  0
ENDBLK
  5
294
100
AcDbEntity
  8
0
100
AcDbBlockEnd
  0
BLOCK
  5
296
100
AcDbEntity
  8
0
100
AcDbBlockBegin
  2
BESCHRIFT_
 70
     2
 10
0.0
 20
0.0
 30
0.0
  3
BESCHRIFT_
  1

  0
LWPOLYLINE
  5
297
100
AcDbEntity
  8
0
  6
CONTINUOUS
 62
     7
100
AcDbPolyline
 90
        3
 70
     0
 10
44.233333
 20
58.306667
 10
54.233333
 20
58.306667
 10
64.233333
 20
38.306667
  0
ENDBLK
  5
298
100
AcDbEntity
  8
0
100
AcDbBlockEnd
  0
BLOCK
  5
29A
100
AcDbEntity
  8
0
100
AcDbBlockBegin
  2
MASTER_72
 70
     0
 10
0.0
 20
0.0
 30
0.0
  3
MASTER_72
  1

  0
LWPOLYLINE
  5
29B
102
{ACAD_REACTORS
330
406
102
}
100
AcDbEntity
  8
0
  6
CONTINUOUS
 62
     7
100
AcDbPolyline
 90
        2
 70
     1
 10
35.0
 20
-26.533333
 10
35.0
 20
10.583333
  0
LWPOLYLINE
  5
29C
102
{ACAD_REACTORS
330
406
102
}
100
AcDbEntity
  8
0
  6
CONTINUOUS
 62
     7
100
AcDbPolyline
 90
        2
 70
     1
 10
0.0
 20
-26.533333
 10
0.0
 20
10.583333
  0
LINE
  5
29D
100
AcDbEntity
  8
0
  6
CONTINUOUS
 62
     7
100
AcDbLine
 10
17.5
 20
-22.3
 30
0.0
 11
35.0
 21
-22.3
 31
0.0
  0
LINE
  5
29E
100
AcDbEntity
  8
0
  6
CONTINUOUS
 62
     7
100
AcDbLine
 10
17.5
 20
-22.3
 30
0.0
 11
0.0
 21
-22.3
 31
0.0
  0
MTEXT
  5
29F
100
AcDbEntity
  8
0
100
AcDbMText
 10
19.727273
 20
-17.200435
 30
0.0
 40
1.540968
 41
19.353684
 71
     5
 72
     5
  1
\C7;\fArial|b0|i0|;\H1.5409676972777;35,00mm
  0
ENDBLK
  5
2A0
100
AcDbEntity
  8
0
100
AcDbBlockEnd
  0
BLOCK
  5
2A2
100
AcDbEntity
  8
0
100
AcDbBlockBegin
  2
RECTANGLE_86
 70
     2
 10
0.0
 20
0.0
 30
0.0
  3
RECTANGLE_86
  1

  0
LWPOLYLINE
  5
2A3
102
{ACAD_REACTORS
330
406
102
}
100
AcDbEntity
  8
0
  6
CONTINUOUS
 62
     7
100
AcDbPolyline
 90
        4
 70
     1
 10
30.0
 20
35.0
 10
70.0
 20
35.0
 10
70.0
 20
65.0
 10
30.0
 20
65.0
  0
ENDBLK
  5
2A4
100
AcDbEntity
  8
0
100
AcDbBlockEnd
  0
BLOCK
  5
2A6
100
AcDbEntity
  8
0
100
AcDbBlockBegin
  2
CIRCLE_87
 70
     0
 10
0.0
 20
0.0
 30
0.0
  3
CIRCLE_87
  1

  0
LWPOLYLINE
  5
2A7
102
{ACAD_REACTORS
330
406
102
}
100
AcDbEntity
  8
0
  6
CONTINUOUS
 62
     7
100
AcDbPolyline
 90
        2
 70
     1
 10
30.0
 20
50.0
 42
-1.0
 10
70.0
 20
50.0
 42
-1.0
  0
ENDBLK
  5
2A8
100
AcDbEntity
  8
0
100
AcDbBlockEnd
  0
BLOCK
  5
2AA
100
AcDbEntity
  8
0
100
AcDbBlockBegin
  2
RECTANGLE_73
 70
     0
 10
0.0
 20
0.0
 30
0.0
  3
RECTANGLE_73
  1

  0
LWPOLYLINE
  5
2AB
102
{ACAD_REACTORS
330
406
102
}
100
AcDbEntity
  8
0
  6
CONTINUOUS
 62
     7
100
AcDbPolyline
 90
        4
 70
     1
 10
30.0
 20
35.0
 10
70.0
 20
35.0
 10
70.0
 20
65.0
 10
30.0
 20
65.0
  0
ENDBLK
  5
2AC
100
AcDbEntity
  8
0
100
AcDbBlockEnd
  0
BLOCK
  5
2AE
100
AcDbEntity
  8
0
100
AcDbBlockBegin
  2
CIRCLE_74
 70
     0
 10
0.0
 20
0.0
 30
0.0
  3
CIRCLE_74
  1

  0
LWPOLYLINE
  5
2AF
102
{ACAD_REACTORS
330
406
102
}
100
AcDbEntity
  8
0
  6
CONTINUOUS
 62
     7
100
AcDbPolyline
 90
        2
 70
     1
 10
30.0
 20
50.0
 42
-1.0
 10
70.0
 20
50.0
 42
-1.0
  0
ENDBLK
  5
2B0
100
AcDbEntity
  8
0
100
AcDbBlockEnd
  0
BLOCK
  5
2B2
100
AcDbEntity
  8
0
100
AcDbBlockBegin
  2
CIRCLE_73
 70
     0
 10
0.0
 20
0.0
 30
0.0
  3
CIRCLE_73
  1

  0
LWPOLYLINE
  5
2B3
102
{ACAD_REACTORS
330
406
102
}
100
AcDbEntity
  8
0
  6
CONTINUOUS
 62
     7
100
AcDbPolyline
 90
        2
 70
     1
 10
30.0
 20
50.0
 42
-1.0
 10
70.0
 20
50.0
 42
-1.0
  0
ENDBLK
  5
2B4
100
AcDbEntity
  8
0
100
AcDbBlockEnd
  0
BLOCK
  5
2B6
100
AcDbEntity
  8
0
100
AcDbBlockBegin
  2
CIRCLE_154
 70
     0
 10
0.0
 20
0.0
 30
0.0
  3
CIRCLE_154
  1

  0
LWPOLYLINE
  5
2B7
102
{ACAD_REACTORS
330
406
102
}
100
AcDbEntity
  8
0
  6
CONTINUOUS
 62
     7
100
AcDbPolyline
 90
        2
 70
     1
 10
30.0
 20
50.0
 42
-1.0
 10
70.0
 20
50.0
 42
-1.0
  0
ENDBLK
  5
2B8
100
AcDbEntity
  8
0
100
AcDbBlockEnd
  0
BLOCK
  5
2BA
100
AcDbEntity
  8
0
100
AcDbBlockBegin
  2
CIRCLE_155
 70
     0
 10
0.0
 20
0.0
 30
0.0
  3
CIRCLE_155
  1

  0
LWPOLYLINE
  5
2BB
102
{ACAD_REACTORS
330
406
102
}
100
AcDbEntity
  8
0
  6
CONTINUOUS
 62
     7
100
AcDbPolyline
 90
        2
 70
     1
 10
30.0
 20
50.0
 42
-1.0
 10
70.0
 20
50.0
 42
-1.0
  0
ENDBLK
  5
2BC
100
AcDbEntity
  8
0
100
AcDbBlockEnd
  0
BLOCK
  5
2BE
100
AcDbEntity
  8
0
100
AcDbBlockBegin
  2
RECTANGLE_154
 70
     0
 10
0.0
 20
0.0
 30
0.0
  3
RECTANGLE_154
  1

  0
LWPOLYLINE
  5
2BF
102
{ACAD_REACTORS
330
406
102
}
100
AcDbEntity
  8
0
  6
CONTINUOUS
 62
     7
100
AcDbPolyline
 90
        4
 70
     1
 10
30.0
 20
35.0
 10
70.0
 20
35.0
 10
70.0
 20
65.0
 10
30.0
 20
65.0
  0
ENDBLK
  5
2C0
100
AcDbEntity
  8
0
100
AcDbBlockEnd
  0
BLOCK
  5
2C2
100
AcDbEntity
  8
0
100
AcDbBlockBegin
  2
MASTER_81
 70
     0
 10
0.0
 20
0.0
 30
0.0
  3
MASTER_81
  1

  0
LWPOLYLINE
  5
2C3
102
{ACAD_REACTORS
330
406
102
}
100
AcDbEntity
  8
0
  6
CONTINUOUS
 62
     7
100
AcDbPolyline
 90
        2
 70
     1
 10
16.5
 20
-10.875
 10
16.5
 20
10.583333
  0
LWPOLYLINE
  5
2C4
102
{ACAD_REACTORS
330
406
102
}
100
AcDbEntity
  8
0
  6
CONTINUOUS
 62
     7
100
AcDbPolyline
 90
        2
 70
     1
 10
0.0
 20
-10.875
 10
0.0
 20
10.583333
  0
LINE
  5
2C5
100
AcDbEntity
  8
0
  6
CONTINUOUS
 62
     7
100
AcDbLine
 10
24.96328
 20
-6.641667
 30
0.0
 11
16.5
 21
-6.641667
 31
0.0
  0
LINE
  5
2C6
100
AcDbEntity
  8
0
  6
CONTINUOUS
 62
     7
100
AcDbLine
 10
-8.46328
 20
-6.641667
 30
0.0
 11
0.0
 21
-6.641667
 31
0.0
  0
MTEXT
  5
2C7
100
AcDbEntity
  8
0
100
AcDbMText
 10
9.3
 20
-1.542102
 30
0.0
 40
1.540968
 41
19.353684
 71
     5
 72
     5
  1
\C7;\fArial|b0|i0|;\H1.5409676972777;16,50mm
  0
ENDBLK
  5
2C8
100
AcDbEntity
  8
0
100
AcDbBlockEnd
  0
BLOCK
  5
2CA
100
AcDbEntity
  8
0
100
AcDbBlockBegin
  2
MASTER_82
 70
     2
 10
0.0
 20
0.0
 30
0.0
  3
MASTER_82
  1

  0
LWPOLYLINE
  5
2CB
102
{ACAD_REACTORS
330
406
102
}
100
AcDbEntity
  8
0
  6
CONTINUOUS
 62
     7
100
AcDbPolyline
 90
        4
 70
     1
 10
0.0
 20
0.0
 10
5.5
 20
0.0
 10
5.5
 20
4.0
 10
0.0
 20
4.0
  0
LWPOLYLINE
  5
2CC
100
AcDbEntity
  8
0
  6
DASHED
 62
     7
100
AcDbPolyline
 90
        4
 70
     1
 10
0.0
 20
0.375
 10
5.5
 20
0.375
 10
5.5
 20
3.625
 10
0.0
 20
3.625
  0
ENDBLK
  5
2CD
100
AcDbEntity
  8
0
100
AcDbBlockEnd
  0
BLOCK
  5
2CF
100
AcDbEntity
  8
0
100
AcDbBlockBegin
  2
MASTER_83
 70
     0
 10
0.0
 20
0.0
 30
0.0
  3
MASTER_83
  1

  0
LWPOLYLINE
  5
2D0
100
AcDbEntity
  8
0
  6
CONTINUOUS
 62
     7
100
AcDbPolyline
 90
        3
 70
     0
 10
33.0
 20
0.0
 10
18.0
 20
0.0
 10
0.0
 20
33.0
  0
MTEXT
  5
2D1
100
AcDbEntity
  8
0
100
AcDbMText
 10
-6.851153
 20
0.0
 30
0.0
 40
1.540968
 41
13.702307
 71
     5
 72
     5
  1
\C7;\fArial|b0|i0|;\H1.5409676972777;xxx
  0
ENDBLK
  5
2D2
100
AcDbEntity
  8
0
100
AcDbBlockEnd
  0
BLOCK
  5
2D4
100
AcDbEntity
  8
0
100
AcDbBlockBegin
  2
MASTER_84
 70
     0
 10
0.0
 20
0.0
 30
0.0
  3
MASTER_84
  1

  0
LWPOLYLINE
  5
2D5
102
{ACAD_REACTORS
330
406
102
}
100
AcDbEntity
  8
0
  6
CONTINUOUS
 62
     7
100
AcDbPolyline
 90
        2
 70
     1
 10
16.5
 20
-10.875
 10
16.5
 20
10.583333
  0
LWPOLYLINE
  5
2D6
102
{ACAD_REACTORS
330
406
102
}
100
AcDbEntity
  8
0
  6
CONTINUOUS
 62
     7
100
AcDbPolyline
 90
        2
 70
     1
 10
0.0
 20
-10.875
 10
0.0
 20
10.583333
  0
LINE
  5
2D7
100
AcDbEntity
  8
0
  6
CONTINUOUS
 62
     7
100
AcDbLine
 10
24.96328
 20
-6.641667
 30
0.0
 11
16.5
 21
-6.641667
 31
0.0
  0
LINE
  5
2D8
100
AcDbEntity
  8
0
  6
CONTINUOUS
 62
     7
100
AcDbLine
 10
-8.46328
 20
-6.641667
 30
0.0
 11
0.0
 21
-6.641667
 31
0.0
  0
MTEXT
  5
2D9
100
AcDbEntity
  8
0
100
AcDbMText
 10
9.3
 20
-1.542102
 30
0.0
 40
1.540968
 41
19.353684
 71
     5
 72
     5
  1
\C7;\fArial|b0|i0|;\H1.5409676972777;16,50mm
  0
ENDBLK
  5
2DA
100
AcDbEntity
  8
0
100
AcDbBlockEnd
  0
BLOCK
  5
2DC
100
AcDbEntity
  8
0
100
AcDbBlockBegin
  2
CIRCLE_182
 70
     2
 10
0.0
 20
0.0
 30
0.0
  3
CIRCLE_182
  1

  0
LWPOLYLINE
  5
2DD
102
{ACAD_REACTORS
330
406
102
}
100
AcDbEntity
  8
0
  6
CONTINUOUS
 62
     7
100
AcDbPolyline
 90
        2
 70
     1
 10
30.0
 20
50.0
 42
-1.0
 10
70.0
 20
50.0
 42
-1.0
  0
ENDBLK
  5
2DE
100
AcDbEntity
  8
0
100
AcDbBlockEnd
  0
BLOCK
  5
2E0
100
AcDbEntity
  8
0
100
AcDbBlockBegin
  2
GEWINDE_183
 70
     0
 10
0.0
 20
0.0
 30
0.0
  3
GEWINDE_183
  1

  0
LWPOLYLINE
  5
2E1
102
{ACAD_REACTORS
330
406
102
}
100
AcDbEntity
  8
0
  6
CONTINUOUS
 62
     7
100
AcDbPolyline
 90
        2
 70
     1
 10
0.75
 20
2.5
 42
-1.0
 10
4.25
 20
2.5
 42
-1.0
  0
LWPOLYLINE
  5
2E2
100
AcDbEntity
  8
0
  6
CONTINUOUS
 62
     7
100
AcDbPolyline
 90
        4
 70
     1
 10
4.106969
 20
4.415111
 42
-0.895043
 10
1.276053
 20
0.263495
 42
0.895043
 10
4.106969
 20
4.415111
 42
0.895043
 10
0.510009
 20
0.906283
 42
-0.895043
  0
ENDBLK
  5
2E3
100
AcDbEntity
  8
0
100
AcDbBlockEnd
  0
BLOCK
  5
2E5
100
AcDbEntity
  8
0
100
AcDbBlockBegin
  2
CIRCLE_146
 70
     0
 10
0.0
 20
0.0
 30
0.0
  3
CIRCLE_146
  1

  0
LWPOLYLINE
  5
2E6
102
{ACAD_REACTORS
330
406
102
}
100
AcDbEntity
  8
0
  6
CONTINUOUS
 62
     7
100
AcDbPolyline
 90
        2
 70
     1
 10
30.0
 20
50.0
 42
-1.0
 10
70.0
 20
50.0
 42
-1.0
  0
ENDBLK
  5
2E7
100
AcDbEntity
  8
0
100
AcDbBlockEnd
  0
BLOCK
  5
2E9
100
AcDbEntity
  8
0
100
AcDbBlockBegin
  2
GEWINDE_147
 70
     0
 10
0.0
 20
0.0
 30
0.0
  3
GEWINDE_147
  1

  0
LWPOLYLINE
  5
2EA
102
{ACAD_REACTORS
330
406
102
}
100
AcDbEntity
  8
0
  6
CONTINUOUS
 62
     7
100
AcDbPolyline
 90
        2
 70
     1
 10
0.75
 20
2.5
 42
-1.0
 10
4.25
 20
2.5
 42
-1.0
  0
LWPOLYLINE
  5
2EB
100
AcDbEntity
  8
0
  6
CONTINUOUS
 62
     7
100
AcDbPolyline
 90
        4
 70
     1
 10
4.106969
 20
4.415111
 42
-0.895043
 10
1.276053
 20
0.263495
 42
0.895043
 10
4.106969
 20
4.415111
 42
0.895043
 10
0.510009
 20
0.906283
 42
-0.895043
  0
ENDBLK
  5
2EC
100
AcDbEntity
  8
0
100
AcDbBlockEnd
  0
BLOCK
  5
2EE
100
AcDbEntity
  8
0
100
AcDbBlockBegin
  2
MASTER_89
 70
     0
 10
0.0
 20
0.0
 30
0.0
  3
MASTER_89
  1

  0
LWPOLYLINE
  5
2EF
102
{ACAD_REACTORS
330
406
102
}
100
AcDbEntity
  8
0
  6
CONTINUOUS
 62
     7
100
AcDbPolyline
 90
        2
 70
     1
 10
16.5
 20
-10.875
 10
16.5
 20
10.583333
  0
LWPOLYLINE
  5
2F0
102
{ACAD_REACTORS
330
406
102
}
100
AcDbEntity
  8
0
  6
CONTINUOUS
 62
     7
100
AcDbPolyline
 90
        2
 70
     1
 10
0.0
 20
-10.875
 10
0.0
 20
10.583333
  0
LINE
  5
2F1
100
AcDbEntity
  8
0
  6
CONTINUOUS
 62
     7
100
AcDbLine
 10
24.96328
 20
-6.641667
 30
0.0
 11
16.5
 21
-6.641667
 31
0.0
  0
LINE
  5
2F2
100
AcDbEntity
  8
0
  6
CONTINUOUS
 62
     7
100
AcDbLine
 10
-8.46328
 20
-6.641667
 30
0.0
 11
0.0
 21
-6.641667
 31
0.0
  0
MTEXT
  5
2F3
100
AcDbEntity
  8
0
100
AcDbMText
 10
9.3
 20
-1.542102
 30
0.0
 40
1.540968
 41
19.353684
 71
     5
 72
     5
  1
\C7;\fArial|b0|i0|;\H1.5409676972777;16,50mm
  0
ENDBLK
  5
2F4
100
AcDbEntity
  8
0
100
AcDbBlockEnd
  0
BLOCK
  5
2F6
100
AcDbEntity
  8
0
100
AcDbBlockBegin
  2
MASTER_90
 70
     2
 10
0.0
 20
0.0
 30
0.0
  3
MASTER_90
  1

  0
LWPOLYLINE
  5
2F7
100
AcDbEntity
  8
0
  6
CONTINUOUS
 62
     7
100
AcDbPolyline
 90
        3
 70
     0
 10
0.0
 20
70.0
 10
20.0
 20
70.0
 10
32.581903
 20
0.0
  0
MTEXT
  5
2F8
100
AcDbEntity
  8
0
100
AcDbMText
 10
-9.519111
 20
0.0
 30
0.0
 40
2.054647
 41
19.038221
 71
     5
 72
     5
  1
\C7;\fArial|b0|i0|;\H2.0546471100301;XXX
  0
ENDBLK
  5
2F9
100
AcDbEntity
  8
0
100
AcDbBlockEnd
  0
BLOCK
  5
2FB
100
AcDbEntity
  8
0
100
AcDbBlockBegin
  2
MASTER_91
 70
     0
 10
0.0
 20
0.0
 30
0.0
  3
MASTER_91
  1

  0
LWPOLYLINE
  5
2FC
102
{ACAD_REACTORS
330
406
102
}
100
AcDbEntity
  8
0
  6
CONTINUOUS
 62
     7
100
AcDbPolyline
 90
        2
 70
     1
 10
16.5
 20
-10.875
 10
16.5
 20
10.583333
  0
LWPOLYLINE
  5
2FD
102
{ACAD_REACTORS
330
406
102
}
100
AcDbEntity
  8
0
  6
CONTINUOUS
 62
     7
100
AcDbPolyline
 90
        2
 70
     1
 10
0.0
 20
-10.875
 10
0.0
 20
10.583333
  0
LINE
  5
2FE
100
AcDbEntity
  8
0
  6
CONTINUOUS
 62
     7
100
AcDbLine
 10
24.96328
 20
-6.641667
 30
0.0
 11
16.5
 21
-6.641667
 31
0.0
  0
LINE
  5
2FF
100
AcDbEntity
  8
0
  6
CONTINUOUS
 62
     7
100
AcDbLine
 10
-8.46328
 20
-6.641667
 30
0.0
 11
0.0
 21
-6.641667
 31
0.0
  0
MTEXT
  5
300
100
AcDbEntity
  8
0
100
AcDbMText
 10
9.3
 20
-1.542102
 30
0.0
 40
1.540968
 41
19.353684
 71
     5
 72
     5
  1
\C7;\fArial|b0|i0|;\H1.5409676972777;16,50mm
  0
ENDBLK
  5
301
100
AcDbEntity
  8
0
100
AcDbBlockEnd
  0
BLOCK
  5
303
100
AcDbEntity
  8
0
100
AcDbBlockBegin
  2
MASTER_92
 70
     2
 10
0.0
 20
0.0
 30
0.0
  3
MASTER_92
  1

  0
LWPOLYLINE
  5
304
102
{ACAD_REACTORS
330
406
102
}
100
AcDbEntity
  8
0
  6
CONTINUOUS
 62
     7
100
AcDbPolyline
 90
        4
 70
     1
 10
0.0
 20
0.0
 10
5.5
 20
0.0
 10
5.5
 20
4.0
 10
0.0
 20
4.0
  0
LWPOLYLINE
  5
305
100
AcDbEntity
  8
0
  6
DASHED
 62
     7
100
AcDbPolyline
 90
        4
 70
     1
 10
0.0
 20
0.375
 10
5.5
 20
0.375
 10
5.5
 20
3.625
 10
0.0
 20
3.625
  0
ENDBLK
  5
306
100
AcDbEntity
  8
0
100
AcDbBlockEnd
  0
BLOCK
  5
308
100
AcDbEntity
  8
0
100
AcDbBlockBegin
  2
RECTANGLE_88
 70
     0
 10
0.0
 20
0.0
 30
0.0
  3
RECTANGLE_88
  1

  0
LWPOLYLINE
  5
309
102
{ACAD_REACTORS
330
406
102
}
100
AcDbEntity
  8
0
  6
CONTINUOUS
 62
     7
100
AcDbPolyline
 90
        4
 70
     1
 10
30.0
 20
35.0
 10
70.0
 20
35.0
 10
70.0
 20
65.0
 10
30.0
 20
65.0
  0
ENDBLK
  5
30A
100
AcDbEntity
  8
0
100
AcDbBlockEnd
  0
BLOCK
  5
30C
100
AcDbEntity
  8
0
100
AcDbBlockBegin
  2
RECTANGLE_148
 70
     0
 10
0.0
 20
0.0
 30
0.0
  3
RECTANGLE_148
  1

  0
LWPOLYLINE
  5
30D
102
{ACAD_REACTORS
330
406
102
}
100
AcDbEntity
  8
0
  6
CONTINUOUS
 62
     7
100
AcDbPolyline
 90
        4
 70
     1
 10
30.0
 20
35.0
 10
70.0
 20
35.0
 10
70.0
 20
65.0
 10
30.0
 20
65.0
  0
ENDBLK
  5
30E
100
AcDbEntity
  8
0
100
AcDbBlockEnd
  0
BLOCK
  5
310
100
AcDbEntity
  8
0
100
AcDbBlockBegin
  2
MASTER_95
 70
     0
 10
0.0
 20
0.0
 30
0.0
  3
MASTER_95
  1

  0
LWPOLYLINE
  5
311
102
{ACAD_REACTORS
330
406
102
}
100
AcDbEntity
  8
0
  6
CONTINUOUS
 62
     7
100
AcDbPolyline
 90
        4
 70
     1
 10
0.0
 20
0.0
 10
5.5
 20
0.0
 10
5.5
 20
4.0
 10
0.0
 20
4.0
  0
LWPOLYLINE
  5
312
100
AcDbEntity
  8
0
  6
DASHED
 62
     7
100
AcDbPolyline
 90
        4
 70
     1
 10
0.0
 20
0.375
 10
5.5
 20
0.375
 10
5.5
 20
3.625
 10
0.0
 20
3.625
  0
ENDBLK
  5
313
100
AcDbEntity
  8
0
100
AcDbBlockEnd
  0
BLOCK
  5
315
100
AcDbEntity
  8
0
100
AcDbBlockBegin
  2
MASTER_96
 70
     0
 10
0.0
 20
0.0
 30
0.0
  3
MASTER_96
  1

  0
LWPOLYLINE
  5
316
102
{ACAD_REACTORS
330
406
102
}
100
AcDbEntity
  8
0
  6
CONTINUOUS
 62
     7
100
AcDbPolyline
 90
        2
 70
     1
 10
16.5
 20
-10.875
 10
16.5
 20
10.583333
  0
LWPOLYLINE
  5
317
102
{ACAD_REACTORS
330
406
102
}
100
AcDbEntity
  8
0
  6
CONTINUOUS
 62
     7
100
AcDbPolyline
 90
        2
 70
     1
 10
0.0
 20
-10.875
 10
0.0
 20
10.583333
  0
LINE
  5
318
100
AcDbEntity
  8
0
  6
CONTINUOUS
 62
     7
100
AcDbLine
 10
24.96328
 20
-6.641667
 30
0.0
 11
16.5
 21
-6.641667
 31
0.0
  0
LINE
  5
319
100
AcDbEntity
  8
0
  6
CONTINUOUS
 62
     7
100
AcDbLine
 10
-8.46328
 20
-6.641667
 30
0.0
 11
0.0
 21
-6.641667
 31
0.0
  0
MTEXT
  5
31A
100
AcDbEntity
  8
0
100
AcDbMText
 10
9.3
 20
-1.542102
 30
0.0
 40
1.540968
 41
19.353684
 71
     5
 72
     5
  1
\C7;\fArial|b0|i0|;\H1.5409676972777;16,50mm
  0
ENDBLK
  5
31B
100
AcDbEntity
  8
0
100
AcDbBlockEnd
  0
BLOCK
  5
31D
100
AcDbEntity
  8
0
100
AcDbBlockBegin
  2
MASTER_97
 70
     2
 10
0.0
 20
0.0
 30
0.0
  3
MASTER_97
  1

  0
LWPOLYLINE
  5
31E
100
AcDbEntity
  8
0
  6
CONTINUOUS
 62
     7
100
AcDbPolyline
 90
        3
 70
     0
 10
33.0
 20
0.0
 10
18.0
 20
0.0
 10
0.0
 20
33.0
  0
MTEXT
  5
31F
100
AcDbEntity
  8
0
100
AcDbMText
 10
-6.851153
 20
0.0
 30
0.0
 40
1.540968
 41
13.702307
 71
     5
 72
     5
  1
\C7;\fArial|b0|i0|;\H1.5409676972777;xxx
  0
ENDBLK
  5
320
100
AcDbEntity
  8
0
100
AcDbBlockEnd
  0
BLOCK
  5
322
100
AcDbEntity
  8
0
100
AcDbBlockBegin
  2
CIRCLE_152
 70
     0
 10
0.0
 20
0.0
 30
0.0
  3
CIRCLE_152
  1

  0
LWPOLYLINE
  5
323
102
{ACAD_REACTORS
330
406
102
}
100
AcDbEntity
  8
0
  6
CONTINUOUS
 62
     7
100
AcDbPolyline
 90
        2
 70
     1
 10
30.0
 20
50.0
 42
-1.0
 10
70.0
 20
50.0
 42
-1.0
  0
ENDBLK
  5
324
100
AcDbEntity
  8
0
100
AcDbBlockEnd
  0
BLOCK
  5
326
100
AcDbEntity
  8
0
100
AcDbBlockBegin
  2
CIRCLE_148
 70
     0
 10
0.0
 20
0.0
 30
0.0
  3
CIRCLE_148
  1

  0
LWPOLYLINE
  5
327
102
{ACAD_REACTORS
330
406
102
}
100
AcDbEntity
  8
0
  6
CONTINUOUS
 62
     7
100
AcDbPolyline
 90
        2
 70
     1
 10
30.0
 20
50.0
 42
-1.0
 10
70.0
 20
50.0
 42
-1.0
  0
ENDBLK
  5
328
100
AcDbEntity
  8
0
100
AcDbBlockEnd
  0
BLOCK
  5
32A
100
AcDbEntity
  8
0
100
AcDbBlockBegin
  2
CIRCLE_79
 70
     0
 10
0.0
 20
0.0
 30
0.0
  3
CIRCLE_79
  1

  0
LWPOLYLINE
  5
32B
102
{ACAD_REACTORS
330
406
102
}
100
AcDbEntity
  8
0
  6
CONTINUOUS
 62
     7
100
AcDbPolyline
 90
        2
 70
     1
 10
30.0
 20
50.0
 42
-1.0
 10
70.0
 20
50.0
 42
-1.0
  0
ENDBLK
  5
32C
100
AcDbEntity
  8
0
100
AcDbBlockEnd
  0
BLOCK
  5
32E
100
AcDbEntity
  8
0
100
AcDbBlockBegin
  2
MASTER_101
 70
     0
 10
0.0
 20
0.0
 30
0.0
  3
MASTER_101
  1

  0
LWPOLYLINE
  5
32F
102
{ACAD_REACTORS
330
406
102
}
100
AcDbEntity
  8
0
  6
CONTINUOUS
 62
     7
100
AcDbPolyline
 90
        2
 70
     1
 10
16.5
 20
-10.875
 10
16.5
 20
10.583333
  0
LWPOLYLINE
  5
330
102
{ACAD_REACTORS
330
406
102
}
100
AcDbEntity
  8
0
  6
CONTINUOUS
 62
     7
100
AcDbPolyline
 90
        2
 70
     1
 10
0.0
 20
-10.875
 10
0.0
 20
10.583333
  0
LINE
  5
331
100
AcDbEntity
  8
0
  6
CONTINUOUS
 62
     7
100
AcDbLine
 10
24.96328
 20
-6.641667
 30
0.0
 11
16.5
 21
-6.641667
 31
0.0
  0
LINE
  5
332
100
AcDbEntity
  8
0
  6
CONTINUOUS
 62
     7
100
AcDbLine
 10
-8.46328
 20
-6.641667
 30
0.0
 11
0.0
 21
-6.641667
 31
0.0
  0
MTEXT
  5
333
100
AcDbEntity
  8
0
100
AcDbMText
 10
9.3
 20
-1.542102
 30
0.0
 40
1.540968
 41
19.353684
 71
     5
 72
     5
  1
\C7;\fArial|b0|i0|;\H1.5409676972777;16,50mm
  0
ENDBLK
  5
334
100
AcDbEntity
  8
0
100
AcDbBlockEnd
  0
BLOCK
  5
336
100
AcDbEntity
  8
0
100
AcDbBlockBegin
  2
MASTER_102
 70
     2
 10
0.0
 20
0.0
 30
0.0
  3
MASTER_102
  1

  0
LWPOLYLINE
  5
337
102
{ACAD_REACTORS
330
406
102
}
100
AcDbEntity
  8
0
  6
CONTINUOUS
 62
     7
100
AcDbPolyline
 90
        4
 70
     1
 10
0.0
 20
0.0
 10
5.5
 20
0.0
 10
5.5
 20
4.0
 10
0.0
 20
4.0
  0
LWPOLYLINE
  5
338
100
AcDbEntity
  8
0
  6
DASHED
 62
     7
100
AcDbPolyline
 90
        4
 70
     1
 10
0.0
 20
0.375
 10
5.5
 20
0.375
 10
5.5
 20
3.625
 10
0.0
 20
3.625
  0
ENDBLK
  5
339
100
AcDbEntity
  8
0
100
AcDbBlockEnd
  0
BLOCK
  5
33B
100
AcDbEntity
  8
0
100
AcDbBlockBegin
  2
MASTER_103
 70
     0
 10
0.0
 20
0.0
 30
0.0
  3
MASTER_103
  1

  0
LWPOLYLINE
  5
33C
100
AcDbEntity
  8
0
  6
CONTINUOUS
 62
     7
100
AcDbPolyline
 90
        3
 70
     0
 10
33.0
 20
0.0
 10
18.0
 20
0.0
 10
0.0
 20
33.0
  0
MTEXT
  5
33D
100
AcDbEntity
  8
0
100
AcDbMText
 10
-6.851153
 20
0.0
 30
0.0
 40
1.540968
 41
13.702307
 71
     5
 72
     5
  1
\C7;\fArial|b0|i0|;\H1.5409676972777;xxx
  0
ENDBLK
  5
33E
100
AcDbEntity
  8
0
100
AcDbBlockEnd
  0
BLOCK
  5
340
100
AcDbEntity
  8
0
100
AcDbBlockBegin
  2
RECTANGLE_152
 70
     0
 10
0.0
 20
0.0
 30
0.0
  3
RECTANGLE_152
  1

  0
LWPOLYLINE
  5
341
102
{ACAD_REACTORS
330
406
102
}
100
AcDbEntity
  8
0
  6
CONTINUOUS
 62
     7
100
AcDbPolyline
 90
        4
 70
     1
 10
30.0
 20
35.0
 10
70.0
 20
35.0
 10
70.0
 20
65.0
 10
30.0
 20
65.0
  0
ENDBLK
  5
342
100
AcDbEntity
  8
0
100
AcDbBlockEnd
  0
BLOCK
  5
344
100
AcDbEntity
  8
0
100
AcDbBlockBegin
  2
GEWINDE_151
 70
     0
 10
0.0
 20
0.0
 30
0.0
  3
GEWINDE_151
  1

  0
LWPOLYLINE
  5
345
102
{ACAD_REACTORS
330
406
102
}
100
AcDbEntity
  8
0
  6
CONTINUOUS
 62
     7
100
AcDbPolyline
 90
        2
 70
     1
 10
0.75
 20
2.5
 42
-1.0
 10
4.25
 20
2.5
 42
-1.0
  0
LWPOLYLINE
  5
346
100
AcDbEntity
  8
0
  6
CONTINUOUS
 62
     7
100
AcDbPolyline
 90
        4
 70
     1
 10
4.106969
 20
4.415111
 42
-0.895043
 10
1.276053
 20
0.263495
 42
0.895043
 10
4.106969
 20
4.415111
 42
0.895043
 10
0.510009
 20
0.906283
 42
-0.895043
  0
ENDBLK
  5
347
100
AcDbEntity
  8
0
100
AcDbBlockEnd
  0
BLOCK
  5
349
100
AcDbEntity
  8
0
100
AcDbBlockBegin
  2
MASTER_106
 70
     0
 10
0.0
 20
0.0
 30
0.0
  3
MASTER_106
  1

  0
LWPOLYLINE
  5
34A
102
{ACAD_REACTORS
330
406
102
}
100
AcDbEntity
  8
0
  6
CONTINUOUS
 62
     7
100
AcDbPolyline
 90
        2
 70
     1
 10
16.5
 20
-10.875
 10
16.5
 20
10.583333
  0
LWPOLYLINE
  5
34B
102
{ACAD_REACTORS
330
406
102
}
100
AcDbEntity
  8
0
  6
CONTINUOUS
 62
     7
100
AcDbPolyline
 90
        2
 70
     1
 10
0.0
 20
-10.875
 10
0.0
 20
10.583333
  0
LINE
  5
34C
100
AcDbEntity
  8
0
  6
CONTINUOUS
 62
     7
100
AcDbLine
 10
24.96328
 20
-6.641667
 30
0.0
 11
16.5
 21
-6.641667
 31
0.0
  0
LINE
  5
34D
100
AcDbEntity
  8
0
  6
CONTINUOUS
 62
     7
100
AcDbLine
 10
-8.46328
 20
-6.641667
 30
0.0
 11
0.0
 21
-6.641667
 31
0.0
  0
MTEXT
  5
34E
100
AcDbEntity
  8
0
100
AcDbMText
 10
9.3
 20
-1.542102
 30
0.0
 40
1.540968
 41
19.353684
 71
     5
 72
     5
  1
\C7;\fArial|b0|i0|;\H1.5409676972777;16,50mm
  0
ENDBLK
  5
34F
100
AcDbEntity
  8
0
100
AcDbBlockEnd
  0
BLOCK
  5
351
100
AcDbEntity
  8
0
100
AcDbBlockBegin
  2
CIRCLE_107
 70
     2
 10
0.0
 20
0.0
 30
0.0
  3
CIRCLE_107
  1

  0
LWPOLYLINE
  5
352
102
{ACAD_REACTORS
330
406
102
}
100
AcDbEntity
  8
0
  6
CONTINUOUS
 62
     7
100
AcDbPolyline
 90
        2
 70
     1
 10
30.0
 20
50.0
 42
-1.0
 10
70.0
 20
50.0
 42
-1.0
  0
ENDBLK
  5
353
100
AcDbEntity
  8
0
100
AcDbBlockEnd
  0
BLOCK
  5
355
100
AcDbEntity
  8
0
100
AcDbBlockBegin
  2
CIRCLE_101
 70
     0
 10
0.0
 20
0.0
 30
0.0
  3
CIRCLE_101
  1

  0
LWPOLYLINE
  5
356
102
{ACAD_REACTORS
330
406
102
}
100
AcDbEntity
  8
0
  6
CONTINUOUS
 62
     7
100
AcDbPolyline
 90
        2
 70
     1
 10
30.0
 20
50.0
 42
-1.0
 10
70.0
 20
50.0
 42
-1.0
  0
ENDBLK
  5
357
100
AcDbEntity
  8
0
100
AcDbBlockEnd
  0
BLOCK
  5
359
100
AcDbEntity
  8
0
100
AcDbBlockBegin
  2
MASTER_109
 70
     0
 10
0.0
 20
0.0
 30
0.0
  3
MASTER_109
  1

  0
LWPOLYLINE
  5
35A
102
{ACAD_REACTORS
330
406
102
}
100
AcDbEntity
  8
0
  6
CONTINUOUS
 62
     7
100
AcDbPolyline
 90
        2
 70
     1
 10
16.5
 20
-10.875
 10
16.5
 20
10.583333
  0
LWPOLYLINE
  5
35B
102
{ACAD_REACTORS
330
406
102
}
100
AcDbEntity
  8
0
  6
CONTINUOUS
 62
     7
100
AcDbPolyline
 90
        2
 70
     1
 10
0.0
 20
-10.875
 10
0.0
 20
10.583333
  0
LINE
  5
35C
100
AcDbEntity
  8
0
  6
CONTINUOUS
 62
     7
100
AcDbLine
 10
24.96328
 20
-6.641667
 30
0.0
 11
16.5
 21
-6.641667
 31
0.0
  0
LINE
  5
35D
100
AcDbEntity
  8
0
  6
CONTINUOUS
 62
     7
100
AcDbLine
 10
-8.46328
 20
-6.641667
 30
0.0
 11
0.0
 21
-6.641667
 31
0.0
  0
MTEXT
  5
35E
100
AcDbEntity
  8
0
100
AcDbMText
 10
9.3
 20
-1.542102
 30
0.0
 40
1.540968
 41
19.353684
 71
     5
 72
     5
  1
\C7;\fArial|b0|i0|;\H1.5409676972777;16,50mm
  0
ENDBLK
  5
35F
100
AcDbEntity
  8
0
100
AcDbBlockEnd
  0
BLOCK
  5
361
100
AcDbEntity
  8
0
100
AcDbBlockBegin
  2
MASTER_110
 70
     2
 10
0.0
 20
0.0
 30
0.0
  3
MASTER_110
  1

  0
LWPOLYLINE
  5
362
100
AcDbEntity
  8
0
  6
CONTINUOUS
 62
     7
100
AcDbPolyline
 90
        3
 70
     0
 10
33.0
 20
0.0
 10
18.0
 20
0.0
 10
0.0
 20
33.0
  0
MTEXT
  5
363
100
AcDbEntity
  8
0
100
AcDbMText
 10
-6.851153
 20
0.0
 30
0.0
 40
1.540968
 41
13.702307
 71
     5
 72
     5
  1
\C7;\fArial|b0|i0|;\H1.5409676972777;xxx
  0
ENDBLK
  5
364
100
AcDbEntity
  8
0
100
AcDbBlockEnd
  0
BLOCK
  5
366
100
AcDbEntity
  8
0
100
AcDbBlockBegin
  2
RECTANGLE_111
 70
     0
 10
0.0
 20
0.0
 30
0.0
  3
RECTANGLE_111
  1

  0
LWPOLYLINE
  5
367
102
{ACAD_REACTORS
330
406
102
}
100
AcDbEntity
  8
0
  6
CONTINUOUS
 62
     7
100
AcDbPolyline
 90
        4
 70
     1
 10
30.0
 20
35.0
 10
70.0
 20
35.0
 10
70.0
 20
65.0
 10
30.0
 20
65.0
  0
ENDBLK
  5
368
100
AcDbEntity
  8
0
100
AcDbBlockEnd
  0
BLOCK
  5
36A
100
AcDbEntity
  8
0
100
AcDbBlockBegin
  2
MASTER_112
 70
     0
 10
0.0
 20
0.0
 30
0.0
  3
MASTER_112
  1

  0
LWPOLYLINE
  5
36B
102
{ACAD_REACTORS
330
406
102
}
100
AcDbEntity
  8
0
  6
CONTINUOUS
 62
     7
100
AcDbPolyline
 90
        4
 70
     1
 10
0.0
 20
0.0
 10
5.5
 20
0.0
 10
5.5
 20
4.0
 10
0.0
 20
4.0
  0
LWPOLYLINE
  5
36C
100
AcDbEntity
  8
0
  6
DASHED
 62
     7
100
AcDbPolyline
 90
        4
 70
     1
 10
0.0
 20
0.375
 10
5.5
 20
0.375
 10
5.5
 20
3.625
 10
0.0
 20
3.625
  0
ENDBLK
  5
36D
100
AcDbEntity
  8
0
100
AcDbBlockEnd
  0
BLOCK
  5
36F
100
AcDbEntity
  8
0
100
AcDbBlockBegin
  2
MASTER_113
 70
     0
 10
0.0
 20
0.0
 30
0.0
  3
MASTER_113
  1

  0
LWPOLYLINE
  5
370
102
{ACAD_REACTORS
330
406
102
}
100
AcDbEntity
  8
0
  6
CONTINUOUS
 62
     7
100
AcDbPolyline
 90
        2
 70
     1
 10
16.5
 20
-10.875
 10
16.5
 20
10.583333
  0
LWPOLYLINE
  5
371
102
{ACAD_REACTORS
330
406
102
}
100
AcDbEntity
  8
0
  6
CONTINUOUS
 62
     7
100
AcDbPolyline
 90
        2
 70
     1
 10
0.0
 20
-10.875
 10
0.0
 20
10.583333
  0
LINE
  5
372
100
AcDbEntity
  8
0
  6
CONTINUOUS
 62
     7
100
AcDbLine
 10
24.96328
 20
-6.641667
 30
0.0
 11
16.5
 21
-6.641667
 31
0.0
  0
LINE
  5
373
100
AcDbEntity
  8
0
  6
CONTINUOUS
 62
     7
100
AcDbLine
 10
-8.46328
 20
-6.641667
 30
0.0
 11
0.0
 21
-6.641667
 31
0.0
  0
MTEXT
  5
374
100
AcDbEntity
  8
0
100
AcDbMText
 10
9.3
 20
-1.542102
 30
0.0
 40
1.540968
 41
19.353684
 71
     5
 72
     5
  1
\C7;\fArial|b0|i0|;\H1.5409676972777;16,50mm
  0
ENDBLK
  5
375
100
AcDbEntity
  8
0
100
AcDbBlockEnd
  0
BLOCK
  5
377
100
AcDbEntity
  8
0
100
AcDbBlockBegin
  2
RECTANGLE_114
 70
     2
 10
0.0
 20
0.0
 30
0.0
  3
RECTANGLE_114
  1

  0
LWPOLYLINE
  5
378
102
{ACAD_REACTORS
330
406
102
}
100
AcDbEntity
  8
0
  6
CONTINUOUS
 62
     7
100
AcDbPolyline
 90
        4
 70
     1
 10
30.0
 20
35.0
 10
70.0
 20
35.0
 10
70.0
 20
65.0
 10
30.0
 20
65.0
  0
ENDBLK
  5
379
100
AcDbEntity
  8
0
100
AcDbBlockEnd
  0
BLOCK
  5
37B
100
AcDbEntity
  8
0
100
AcDbBlockBegin
  2
CIRCLE_66
 70
     0
 10
0.0
 20
0.0
 30
0.0
  3
CIRCLE_66
  1

  0
LWPOLYLINE
  5
37C
102
{ACAD_REACTORS
330
406
102
}
100
AcDbEntity
  8
0
  6
CONTINUOUS
 62
     7
100
AcDbPolyline
 90
        2
 70
     1
 10
30.0
 20
50.0
 42
-1.0
 10
70.0
 20
50.0
 42
-1.0
  0
ENDBLK
  5
37D
100
AcDbEntity
  8
0
100
AcDbBlockEnd
  0
BLOCK
  5
37F
100
AcDbEntity
  8
0
100
AcDbBlockBegin
  2
MASTER_116
 70
     0
 10
0.0
 20
0.0
 30
0.0
  3
MASTER_116
  1

  0
LWPOLYLINE
  5
380
102
{ACAD_REACTORS
330
406
102
}
100
AcDbEntity
  8
0
  6
CONTINUOUS
 62
     7
100
AcDbPolyline
 90
        2
 70
     1
 10
16.5
 20
-10.875
 10
16.5
 20
10.583333
  0
LWPOLYLINE
  5
381
102
{ACAD_REACTORS
330
406
102
}
100
AcDbEntity
  8
0
  6
CONTINUOUS
 62
     7
100
AcDbPolyline
 90
        2
 70
     1
 10
0.0
 20
-10.875
 10
0.0
 20
10.583333
  0
LINE
  5
382
100
AcDbEntity
  8
0
  6
CONTINUOUS
 62
     7
100
AcDbLine
 10
24.96328
 20
-6.641667
 30
0.0
 11
16.5
 21
-6.641667
 31
0.0
  0
LINE
  5
383
100
AcDbEntity
  8
0
  6
CONTINUOUS
 62
     7
100
AcDbLine
 10
-8.46328
 20
-6.641667
 30
0.0
 11
0.0
 21
-6.641667
 31
0.0
  0
MTEXT
  5
384
100
AcDbEntity
  8
0
100
AcDbMText
 10
9.3
 20
-1.542102
 30
0.0
 40
1.540968
 41
19.353684
 71
     5
 72
     5
  1
\C7;\fArial|b0|i0|;\H1.5409676972777;16,50mm
  0
ENDBLK
  5
385
100
AcDbEntity
  8
0
100
AcDbBlockEnd
  0
BLOCK
  5
387
100
AcDbEntity
  8
0
100
AcDbBlockBegin
  2
CIRCLE_114
 70
     2
 10
0.0
 20
0.0
 30
0.0
  3
CIRCLE_114
  1

  0
LWPOLYLINE
  5
388
102
{ACAD_REACTORS
330
406
102
}
100
AcDbEntity
  8
0
  6
CONTINUOUS
 62
     7
100
AcDbPolyline
 90
        2
 70
     1
 10
30.0
 20
50.0
 42
-1.0
 10
70.0
 20
50.0
 42
-1.0
  0
ENDBLK
  5
389
100
AcDbEntity
  8
0
100
AcDbBlockEnd
  0
BLOCK
  5
38B
100
AcDbEntity
  8
0
100
AcDbBlockBegin
  2
CIRCLE_118
 70
     0
 10
0.0
 20
0.0
 30
0.0
  3
CIRCLE_118
  1

  0
LWPOLYLINE
  5
38C
102
{ACAD_REACTORS
330
406
102
}
100
AcDbEntity
  8
0
  6
CONTINUOUS
 62
     7
100
AcDbPolyline
 90
        2
 70
     1
 10
30.0
 20
50.0
 42
-1.0
 10
70.0
 20
50.0
 42
-1.0
  0
ENDBLK
  5
38D
100
AcDbEntity
  8
0
100
AcDbBlockEnd
  0
BLOCK
  5
38F
100
AcDbEntity
  8
0
100
AcDbBlockBegin
  2
CIRCLE_119
 70
     0
 10
0.0
 20
0.0
 30
0.0
  3
CIRCLE_119
  1

  0
LWPOLYLINE
  5
390
102
{ACAD_REACTORS
330
406
102
}
100
AcDbEntity
  8
0
  6
CONTINUOUS
 62
     7
100
AcDbPolyline
 90
        2
 70
     1
 10
30.0
 20
50.0
 42
-1.0
 10
70.0
 20
50.0
 42
-1.0
  0
ENDBLK
  5
391
100
AcDbEntity
  8
0
100
AcDbBlockEnd
  0
BLOCK
  5
393
100
AcDbEntity
  8
0
100
AcDbBlockBegin
  2
MASTER_120
 70
     0
 10
0.0
 20
0.0
 30
0.0
  3
MASTER_120
  1

  0
LWPOLYLINE
  5
394
102
{ACAD_REACTORS
330
406
102
}
100
AcDbEntity
  8
0
  6
CONTINUOUS
 62
     7
100
AcDbPolyline
 90
        2
 70
     1
 10
16.5
 20
-10.875
 10
16.5
 20
10.583333
  0
LWPOLYLINE
  5
395
102
{ACAD_REACTORS
330
406
102
}
100
AcDbEntity
  8
0
  6
CONTINUOUS
 62
     7
100
AcDbPolyline
 90
        2
 70
     1
 10
0.0
 20
-10.875
 10
0.0
 20
10.583333
  0
LINE
  5
396
100
AcDbEntity
  8
0
  6
CONTINUOUS
 62
     7
100
AcDbLine
 10
24.96328
 20
-6.641667
 30
0.0
 11
16.5
 21
-6.641667
 31
0.0
  0
LINE
  5
397
100
AcDbEntity
  8
0
  6
CONTINUOUS
 62
     7
100
AcDbLine
 10
-8.46328
 20
-6.641667
 30
0.0
 11
0.0
 21
-6.641667
 31
0.0
  0
MTEXT
  5
398
100
AcDbEntity
  8
0
100
AcDbMText
 10
9.3
 20
-1.542102
 30
0.0
 40
1.540968
 41
19.353684
 71
     5
 72
     5
  1
\C7;\fArial|b0|i0|;\H1.5409676972777;16,50mm
  0
ENDBLK
  5
399
100
AcDbEntity
  8
0
100
AcDbBlockEnd
  0
BLOCK
  5
39B
100
AcDbEntity
  8
0
100
AcDbBlockBegin
  2
RECTANGLE_121
 70
     2
 10
0.0
 20
0.0
 30
0.0
  3
RECTANGLE_121
  1

  0
LWPOLYLINE
  5
39C
102
{ACAD_REACTORS
330
406
102
}
100
AcDbEntity
  8
0
  6
CONTINUOUS
 62
     7
100
AcDbPolyline
 90
        4
 70
     1
 10
30.0
 20
35.0
 10
70.0
 20
35.0
 10
70.0
 20
65.0
 10
30.0
 20
65.0
  0
ENDBLK
  5
39D
100
AcDbEntity
  8
0
100
AcDbBlockEnd
  0
BLOCK
  5
39F
100
AcDbEntity
  8
0
100
AcDbBlockBegin
  2
MASTER_122
 70
     0
 10
0.0
 20
0.0
 30
0.0
  3
MASTER_122
  1

  0
LWPOLYLINE
  5
3A0
102
{ACAD_REACTORS
330
406
102
}
100
AcDbEntity
  8
0
  6
CONTINUOUS
 62
     7
100
AcDbPolyline
 90
        4
 70
     1
 10
0.0
 20
0.0
 10
5.5
 20
0.0
 10
5.5
 20
4.0
 10
0.0
 20
4.0
  0
LWPOLYLINE
  5
3A1
100
AcDbEntity
  8
0
  6
DASHED
 62
     7
100
AcDbPolyline
 90
        4
 70
     1
 10
0.0
 20
0.375
 10
5.5
 20
0.375
 10
5.5
 20
3.625
 10
0.0
 20
3.625
  0
ENDBLK
  5
3A2
100
AcDbEntity
  8
0
100
AcDbBlockEnd
  0
BLOCK
  5
3A4
100
AcDbEntity
  8
0
100
AcDbBlockBegin
  2
MASTER_123
 70
     0
 10
0.0
 20
0.0
 30
0.0
  3
MASTER_123
  1

  0
LWPOLYLINE
  5
3A5
102
{ACAD_REACTORS
330
406
102
}
100
AcDbEntity
  8
0
  6
CONTINUOUS
 62
     7
100
AcDbPolyline
 90
        2
 70
     1
 10
16.5
 20
-10.875
 10
16.5
 20
10.583333
  0
LWPOLYLINE
  5
3A6
102
{ACAD_REACTORS
330
406
102
}
100
AcDbEntity
  8
0
  6
CONTINUOUS
 62
     7
100
AcDbPolyline
 90
        2
 70
     1
 10
0.0
 20
-10.875
 10
0.0
 20
10.583333
  0
LINE
  5
3A7
100
AcDbEntity
  8
0
  6
CONTINUOUS
 62
     7
100
AcDbLine
 10
24.96328
 20
-6.641667
 30
0.0
 11
16.5
 21
-6.641667
 31
0.0
  0
LINE
  5
3A8
100
AcDbEntity
  8
0
  6
CONTINUOUS
 62
     7
100
AcDbLine
 10
-8.46328
 20
-6.641667
 30
0.0
 11
0.0
 21
-6.641667
 31
0.0
  0
MTEXT
  5
3A9
100
AcDbEntity
  8
0
100
AcDbMText
 10
9.3
 20
-1.542102
 30
0.0
 40
1.540968
 41
19.353684
 71
     5
 72
     5
  1
\C7;\fArial|b0|i0|;\H1.5409676972777;16,50mm
  0
ENDBLK
  5
3AA
100
AcDbEntity
  8
0
100
AcDbBlockEnd
  0
BLOCK
  5
3AC
100
AcDbEntity
  8
0
100
AcDbBlockBegin
  2
RECTANGLE_113
 70
     2
 10
0.0
 20
0.0
 30
0.0
  3
RECTANGLE_113
  1

  0
LWPOLYLINE
  5
3AD
102
{ACAD_REACTORS
330
406
102
}
100
AcDbEntity
  8
0
  6
CONTINUOUS
 62
     7
100
AcDbPolyline
 90
        4
 70
     1
 10
30.0
 20
35.0
 10
70.0
 20
35.0
 10
70.0
 20
65.0
 10
30.0
 20
65.0
  0
ENDBLK
  5
3AE
100
AcDbEntity
  8
0
100
AcDbBlockEnd
  0
BLOCK
  5
3B0
100
AcDbEntity
  8
0
100
AcDbBlockBegin
  2
MASTER_125
 70
     0
 10
0.0
 20
0.0
 30
0.0
  3
MASTER_125
  1

  0
LWPOLYLINE
  5
3B1
100
AcDbEntity
  8
0
  6
CONTINUOUS
 62
     7
100
AcDbPolyline
 90
        3
 70
     0
 10
33.0
 20
0.0
 10
18.0
 20
0.0
 10
0.0
 20
33.0
  0
MTEXT
  5
3B2
100
AcDbEntity
  8
0
100
AcDbMText
 10
-6.851153
 20
0.0
 30
0.0
 40
1.540968
 41
13.702307
 71
     5
 72
     5
  1
\C7;\fArial|b0|i0|;\H1.5409676972777;xxx
  0
ENDBLK
  5
3B3
100
AcDbEntity
  8
0
100
AcDbBlockEnd
  0
BLOCK
  5
3B5
100
AcDbEntity
  8
0
100
AcDbBlockBegin
  2
CIRCLE_126
 70
     0
 10
0.0
 20
0.0
 30
0.0
  3
CIRCLE_126
  1

  0
LWPOLYLINE
  5
3B6
102
{ACAD_REACTORS
330
406
102
}
100
AcDbEntity
  8
0
  6
CONTINUOUS
 62
     7
100
AcDbPolyline
 90
        2
 70
     1
 10
30.0
 20
50.0
 42
-1.0
 10
70.0
 20
50.0
 42
-1.0
  0
ENDBLK
  5
3B7
100
AcDbEntity
  8
0
100
AcDbBlockEnd
  0
BLOCK
  5
3B9
100
AcDbEntity
  8
0
100
AcDbBlockBegin
  2
CIRCLE_127
 70
     0
 10
0.0
 20
0.0
 30
0.0
  3
CIRCLE_127
  1

  0
LWPOLYLINE
  5
3BA
102
{ACAD_REACTORS
330
406
102
}
100
AcDbEntity
  8
0
  6
CONTINUOUS
 62
     7
100
AcDbPolyline
 90
        2
 70
     1
 10
30.0
 20
50.0
 42
-1.0
 10
70.0
 20
50.0
 42
-1.0
  0
ENDBLK
  5
3BB
100
AcDbEntity
  8
0
100
AcDbBlockEnd
  0
BLOCK
  5
3BD
100
AcDbEntity
  8
0
100
AcDbBlockBegin
  2
MASTER_128
 70
     0
 10
0.0
 20
0.0
 30
0.0
  3
MASTER_128
  1

  0
LWPOLYLINE
  5
3BE
102
{ACAD_REACTORS
330
406
102
}
100
AcDbEntity
  8
0
  6
CONTINUOUS
 62
     7
100
AcDbPolyline
 90
        2
 70
     1
 10
16.5
 20
-10.875
 10
16.5
 20
10.583333
  0
LWPOLYLINE
  5
3BF
102
{ACAD_REACTORS
330
406
102
}
100
AcDbEntity
  8
0
  6
CONTINUOUS
 62
     7
100
AcDbPolyline
 90
        2
 70
     1
 10
0.0
 20
-10.875
 10
0.0
 20
10.583333
  0
LINE
  5
3C0
100
AcDbEntity
  8
0
  6
CONTINUOUS
 62
     7
100
AcDbLine
 10
24.96328
 20
-6.641667
 30
0.0
 11
16.5
 21
-6.641667
 31
0.0
  0
LINE
  5
3C1
100
AcDbEntity
  8
0
  6
CONTINUOUS
 62
     7
100
AcDbLine
 10
-8.46328
 20
-6.641667
 30
0.0
 11
0.0
 21
-6.641667
 31
0.0
  0
MTEXT
  5
3C2
100
AcDbEntity
  8
0
100
AcDbMText
 10
9.3
 20
-1.542102
 30
0.0
 40
1.540968
 41
19.353684
 71
     5
 72
     5
  1
\C7;\fArial|b0|i0|;\H1.5409676972777;16,50mm
  0
ENDBLK
  5
3C3
100
AcDbEntity
  8
0
100
AcDbBlockEnd
  0
BLOCK
  5
3C5
100
AcDbEntity
  8
0
100
AcDbBlockBegin
  2
MASTER_129
 70
     2
 10
0.0
 20
0.0
 30
0.0
  3
MASTER_129
  1

  0
LWPOLYLINE
  5
3C6
102
{ACAD_REACTORS
330
406
102
}
100
AcDbEntity
  8
0
  6
CONTINUOUS
 62
     7
100
AcDbPolyline
 90
        4
 70
     1
 10
0.0
 20
0.0
 10
5.5
 20
0.0
 10
5.5
 20
4.0
 10
0.0
 20
4.0
  0
LWPOLYLINE
  5
3C7
100
AcDbEntity
  8
0
  6
DASHED
 62
     7
100
AcDbPolyline
 90
        4
 70
     1
 10
0.0
 20
0.375
 10
5.5
 20
0.375
 10
5.5
 20
3.625
 10
0.0
 20
3.625
  0
ENDBLK
  5
3C8
100
AcDbEntity
  8
0
100
AcDbBlockEnd
  0
BLOCK
  5
3CA
100
AcDbEntity
  8
0
100
AcDbBlockBegin
  2
MASTER_130
 70
     0
 10
0.0
 20
0.0
 30
0.0
  3
MASTER_130
  1

  0
LWPOLYLINE
  5
3CB
100
AcDbEntity
  8
0
  6
CONTINUOUS
 62
     7
100
AcDbPolyline
 90
        3
 70
     0
 10
33.0
 20
0.0
 10
18.0
 20
0.0
 10
0.0
 20
33.0
  0
MTEXT
  5
3CC
100
AcDbEntity
  8
0
100
AcDbMText
 10
-6.851153
 20
0.0
 30
0.0
 40
1.540968
 41
13.702307
 71
     5
 72
     5
  1
\C7;\fArial|b0|i0|;\H1.5409676972777;xxx
  0
ENDBLK
  5
3CD
100
AcDbEntity
  8
0
100
AcDbBlockEnd
  0
BLOCK
  5
3CF
100
AcDbEntity
  8
0
100
AcDbBlockBegin
  2
RECTANGLE_131
 70
     0
 10
0.0
 20
0.0
 30
0.0
  3
RECTANGLE_131
  1

  0
LWPOLYLINE
  5
3D0
102
{ACAD_REACTORS
330
406
102
}
100
AcDbEntity
  8
0
  6
CONTINUOUS
 62
     7
100
AcDbPolyline
 90
        4
 70
     1
 10
30.0
 20
35.0
 10
70.0
 20
35.0
 10
70.0
 20
65.0
 10
30.0
 20
65.0
  0
ENDBLK
  5
3D1
100
AcDbEntity
  8
0
100
AcDbBlockEnd
  0
BLOCK
  5
3D3
100
AcDbEntity
  8
0
100
AcDbBlockBegin
  2
GEWINDE_132
 70
     0
 10
0.0
 20
0.0
 30
0.0
  3
GEWINDE_132
  1

  0
LWPOLYLINE
  5
3D4
102
{ACAD_REACTORS
330
406
102
}
100
AcDbEntity
  8
0
  6
CONTINUOUS
 62
     7
100
AcDbPolyline
 90
        2
 70
     1
 10
0.75
 20
2.5
 42
-1.0
 10
4.25
 20
2.5
 42
-1.0
  0
LWPOLYLINE
  5
3D5
100
AcDbEntity
  8
0
  6
CONTINUOUS
 62
     7
100
AcDbPolyline
 90
        4
 70
     1
 10
4.106969
 20
4.415111
 42
-0.895043
 10
1.276053
 20
0.263495
 42
0.895043
 10
4.106969
 20
4.415111
 42
0.895043
 10
0.510009
 20
0.906283
 42
-0.895043
  0
ENDBLK
  5
3D6
100
AcDbEntity
  8
0
100
AcDbBlockEnd
  0
BLOCK
  5
3D8
100
AcDbEntity
  8
0
100
AcDbBlockBegin
  2
MASTER_133
 70
     0
 10
0.0
 20
0.0
 30
0.0
  3
MASTER_133
  1

  0
LWPOLYLINE
  5
3D9
102
{ACAD_REACTORS
330
406
102
}
100
AcDbEntity
  8
0
  6
CONTINUOUS
 62
     7
100
AcDbPolyline
 90
        2
 70
     1
 10
16.5
 20
-10.875
 10
16.5
 20
10.583333
  0
LWPOLYLINE
  5
3DA
102
{ACAD_REACTORS
330
406
102
}
100
AcDbEntity
  8
0
  6
CONTINUOUS
 62
     7
100
AcDbPolyline
 90
        2
 70
     1
 10
0.0
 20
-10.875
 10
0.0
 20
10.583333
  0
LINE
  5
3DB
100
AcDbEntity
  8
0
  6
CONTINUOUS
 62
     7
100
AcDbLine
 10
24.96328
 20
-6.641667
 30
0.0
 11
16.5
 21
-6.641667
 31
0.0
  0
LINE
  5
3DC
100
AcDbEntity
  8
0
  6
CONTINUOUS
 62
     7
100
AcDbLine
 10
-8.46328
 20
-6.641667
 30
0.0
 11
0.0
 21
-6.641667
 31
0.0
  0
MTEXT
  5
3DD
100
AcDbEntity
  8
0
100
AcDbMText
 10
9.3
 20
-1.542102
 30
0.0
 40
1.540968
 41
19.353684
 71
     5
 72
     5
  1
\C7;\fArial|b0|i0|;\H1.5409676972777;16,50mm
  0
ENDBLK
  5
3DE
100
AcDbEntity
  8
0
100
AcDbBlockEnd
  0
BLOCK
  5
3E0
100
AcDbEntity
  8
0
100
AcDbBlockBegin
  2
RECTANGLE_189
 70
     2
 10
0.0
 20
0.0
 30
0.0
  3
RECTANGLE_189
  1

  0
LWPOLYLINE
  5
3E1
102
{ACAD_REACTORS
330
406
102
}
100
AcDbEntity
  8
0
  6
CONTINUOUS
 62
     7
100
AcDbPolyline
 90
        4
 70
     1
 10
30.0
 20
35.0
 10
70.0
 20
35.0
 10
70.0
 20
65.0
 10
30.0
 20
65.0
  0
ENDBLK
  5
3E2
100
AcDbEntity
  8
0
100
AcDbBlockEnd
  0
BLOCK
  5
3E4
100
AcDbEntity
  8
0
100
AcDbBlockBegin
  2
CIRCLE_190
 70
     0
 10
0.0
 20
0.0
 30
0.0
  3
CIRCLE_190
  1

  0
LWPOLYLINE
  5
3E5
102
{ACAD_REACTORS
330
406
102
}
100
AcDbEntity
  8
0
  6
CONTINUOUS
 62
     7
100
AcDbPolyline
 90
        2
 70
     1
 10
30.0
 20
50.0
 42
-1.0
 10
70.0
 20
50.0
 42
-1.0
  0
ENDBLK
  5
3E6
100
AcDbEntity
  8
0
100
AcDbBlockEnd
  0
BLOCK
  5
3E8
100
AcDbEntity
  8
0
100
AcDbBlockBegin
  2
MASTER_136
 70
     0
 10
0.0
 20
0.0
 30
0.0
  3
MASTER_136
  1

  0
LWPOLYLINE
  5
3E9
102
{ACAD_REACTORS
330
406
102
}
100
AcDbEntity
  8
0
  6
CONTINUOUS
 62
     7
100
AcDbPolyline
 90
        2
 70
     1
 10
16.5
 20
-10.875
 10
16.5
 20
10.583333
  0
LWPOLYLINE
  5
3EA
102
{ACAD_REACTORS
330
406
102
}
100
AcDbEntity
  8
0
  6
CONTINUOUS
 62
     7
100
AcDbPolyline
 90
        2
 70
     1
 10
0.0
 20
-10.875
 10
0.0
 20
10.583333
  0
LINE
  5
3EB
100
AcDbEntity
  8
0
  6
CONTINUOUS
 62
     7
100
AcDbLine
 10
24.96328
 20
-6.641667
 30
0.0
 11
16.5
 21
-6.641667
 31
0.0
  0
LINE
  5
3EC
100
AcDbEntity
  8
0
  6
CONTINUOUS
 62
     7
100
AcDbLine
 10
-8.46328
 20
-6.641667
 30
0.0
 11
0.0
 21
-6.641667
 31
0.0
  0
MTEXT
  5
3ED
100
AcDbEntity
  8
0
100
AcDbMText
 10
9.3
 20
-1.542102
 30
0.0
 40
1.540968
 41
19.353684
 71
     5
 72
     5
  1
\C7;\fArial|b0|i0|;\H1.5409676972777;16,50mm
  0
ENDBLK
  5
3EE
100
AcDbEntity
  8
0
100
AcDbBlockEnd
  0
BLOCK
  5
3F0
100
AcDbEntity
  8
0
100
AcDbBlockBegin
  2
MASTER_137
 70
     2
 10
0.0
 20
0.0
 30
0.0
  3
MASTER_137
  1

  0
ATTDEF
  5
3F1
100
AcDbEntity
  8
0
100
AcDbText
 10
16.5
 20
12.7
 30
0.0
 40
0.2
  1
0.00
100
AcDbAttributeDefinition
  3
Genauigkeit
  2
LPREC
 70
     0
  0
ATTDEF
  5
3F2
100
AcDbEntity
  8
0
100
AcDbText
 10
16.5
 20
12.7
 30
0.0
 40
0.2
  1
 Einheiten des Zeichenblattes verwenden
100
AcDbAttributeDefinition
  3
Ma\U+00DFeinheiten
  2
LUNITS
 70
     0
  0
ATTDEF
  5
3F3
100
AcDbEntity
  8
0
100
AcDbText
 10
16.5
 20
12.7
 30
0.0
 40
0.2
  1
Ma\U+00DFeinheiten anzeigen
100
AcDbAttributeDefinition
  3
Ma\U+00DFeinheiten-Anzeige
  2
SHOWUNITS
 70
     0
  0
ATTDEF
  5
3F4
100
AcDbEntity
  8
0
100
AcDbText
 10
16.5
 20
12.7
 30
0.0
 40
0.2
  1
Beide
100
AcDbAttributeDefinition
  3
Erweiterungslinien
  2
EXTENSIONS
 70
     0
  0
LWPOLYLINE
  5
3F5
102
{ACAD_REACTORS
330
406
102
}
100
AcDbEntity
  8
0
  6
CONTINUOUS
 62
     7
100
AcDbPolyline
 90
        2
 70
     1
 10
16.5
 20
-10.875
 10
16.5
 20
10.583333
  0
LWPOLYLINE
  5
3F6
102
{ACAD_REACTORS
330
406
102
}
100
AcDbEntity
  8
0
  6
CONTINUOUS
 62
     7
100
AcDbPolyline
 90
        2
 70
     1
 10
0.0
 20
-10.875
 10
0.0
 20
10.583333
  0
LINE
  5
3F7
100
AcDbEntity
  8
0
  6
CONTINUOUS
 62
     7
100
AcDbLine
 10
24.96328
 20
-6.641667
 30
0.0
 11
16.5
 21
-6.641667
 31
0.0
  0
LINE
  5
3F8
100
AcDbEntity
  8
0
  6
CONTINUOUS
 62
     7
100
AcDbLine
 10
-8.46328
 20
-6.641667
 30
0.0
 11
0.0
 21
-6.641667
 31
0.0
  0
MTEXT
  5
3F9
100
AcDbEntity
  8
0
100
AcDbMText
 10
9.3
 20
-1.542102
 30
0.0
 40
1.540968
 41
19.353684
 71
     5
 72
     5
  1
\C7;\fArial|b0|i0|;\H1.5409676972777;16,50mm
  0
ENDBLK
  5
3FA
100
AcDbEntity
  8
0
100
AcDbBlockEnd
  0
BLOCK
  5
3FC
100
AcDbEntity
  8
0
100
AcDbBlockBegin
  2
AUTO-BEMA\U+00DFUNG
 70
     2
 10
0.0
 20
0.0
 30
0.0
  3
AUTO-BEMA\U+00DFUNG
  1

  0
LWPOLYLINE
  5
3FD
100
AcDbEntity
  8
0
  6
CONTINUOUS
 62
     7
100
AcDbPolyline
 90
        2
 70
     1
 10
15.0
 20
29.475556
 10
15.0
 20
23.064444
  0
LWPOLYLINE
  5
3FE
100
AcDbEntity
  8
0
  6
CONTINUOUS
 62
     7
100
AcDbPolyline
 90
        2
 70
     1
 10
35.0
 20
29.475556
 10
35.0
 20
23.064444
  0
LINE
  5
3FF
100
AcDbEntity
  8
0
  6
CONTINUOUS
 62
     7
100
AcDbLine
 10
25.0
 20
26.653333
 30
0.0
 11
15.0
 21
26.653333
 31
0.0
  0
LINE
  5
400
100
AcDbEntity
  8
0
  6
CONTINUOUS
 62
     7
100
AcDbLine
 10
25.0
 20
26.653333
 30
0.0
 11
35.0
 21
26.653333
 31
0.0
  0
MTEXT
  5
401
100
AcDbEntity
  8
0
100
AcDbMText
 10
25.0
 20
26.653333
 30
0.0
 40
2.054647
 41
9.674904
 71
     5
 72
     5
  1
\C7;\fArial|b0|i0|;\H2.0546471100301;20 mm.
  0
ENDBLK
  5
402
100
AcDbEntity
  8
0
100
AcDbBlockEnd
  0
BLOCK
  5
404
100
AcDbEntity
  8
0
100
AcDbBlockBegin
  2
GEZACKTER_STERN_2
 70
     0
 10
0.0
 20
0.0
 30
0.0
  3
GEZACKTER_STERN_2
  1

  0
LWPOLYLINE
  5
405
102
{ACAD_REACTORS
330
406
102
}
100
AcDbEntity
  8
0
  6
CONTINUOUS
 62
     7
100
AcDbPolyline
 90
       36
 70
     1
 10
12.28415
 20
26.163134
 10
0.551391
 20
25.087377
 10
13.316994
 20
24.321352
 10
1.240631
 20
20.946844
 10
14.474025
 20
19.651164
 10
4.548979
 20
11.378738
 10
17.058674
 20
16.162791
 10
11.165677
 20
5.797342
 10
21.090723
 20
14.568106
 10
21.090723
 20
5.0
 10
24.399072
 20
14.568106
 10
27.70742
 20
5.0
 10
27.70742
 20
14.568106
 10
36.667531
 20
5.664452
 10
31.842856
 20
16.0299
 10
47.626437
 20
10.24917
 10
35.151205
 20
18.687708
 10
47.557512
 20
15.498339
 10
36.504385
 20
22.975812
 10
50.0
 20
23.528607
 10
36.23119
 20
25.055456
 10
47.557512
 20
30.51495
 10
34.324118
 20
28.920266
 10
44.249164
 20
38.089701
 10
33.083487
 20
32.774087
 10
36.667532
 20
43.272425
 10
28.39666
 20
34.767442
 10
26.880333
 20
45.0
 10
22.744897
 20
34.767443
 10
17.782374
 20
45.0
 10
17.782374
 20
33.704319
 10
10.200742
 20
42.209302
 10
15.301113
 20
31.843854
 10
4.135436
 20
38.488372
 10
13.052282
 20
29.410311
 10
0.0
 20
30.249169
  0
HATCH
  5
406
100
AcDbEntity
  8
0
 62
     2
100
AcDbHatch
 10
0.0
 20
0.0
 30
0.0
210
0.0
220
0.0
230
1.0
  2
SOLID
 70
     1
 71
     1
 91
        1
 92
        3
 72
     0
 73
     1
 93
       36
 10
12.284149764574499
 20
26.163134353558799
 10
0.5513905651188999
 20
25.087376797341999
 10
13.316994067128
 20
24.321352432780799
 10
1.2406307565266999
 20
20.946843853820798
 10
14.474025492811499
 20
19.651164066445197
 10
4.5489794405979493
 20
11.3787375415284
 10
17.058674225581498
 20
16.162790697674403
 10
11.1656768087405
 20
5.7973421926910422
 10
21.090722860953999
 20
14.568106312292402
 10
21.090722860953999
 20
5.0000000000000018
 10
24.3990715450255
 20
14.568106312292402
 10
27.70742022909651
 20
5.0000000000000018
 10
27.70742022909651
 20
14.568106312292402
 10
36.667531248456008
 20
5.6644518272425222
 10
31.842856084185499
 20
16.029900332226003
 10
47.626437146668493
 20
10.249170285714401
 10
35.151204768256996
 20
18.687707641196003
 10
47.557512333523988
 20
15.498338870432001
 10
36.504385176411489
 20
22.975812017255198
 10
50.0
 20
23.528607255814002
 10
36.231190045426494
 20
25.0554563154204
 10
47.557512333523988
 20
30.514950166112797
 10
34.324117597238988
 20
28.920265780730801
 10
44.249163649452498
 20
38.089700996677585
 10
33.083486840712503
 20
32.774087229236009
 10
36.667532130682517
 20
43.272425249169586
 10
28.396659538278005
 20
34.767441860465205
 10
26.880333058078509
 20
45.0
 10
22.744897202989499
 20
34.767442710963607
 10
17.782374176883
 20
45.0
 10
17.782374176883
 20
33.704318936877208
 10
10.200741775886501
 20
42.209302325581206
 10
15.301112663829498
 20
31.84385382059801
 10
4.1354358550890504
 20
38.488372093023202
 10
13.0522816531555
 20
29.410310987233199
 10
0.0
 20
30.249168584717598
 97
      110
330
212
330
213
330
21F
330
224
330
225
330
22C
330
22D
330
22E
330
232
330
233
330
234
330
238
330
239
330
246
330
24A
330
24E
330
252
330
256
330
25A
330
25B
330
264
330
268
330
26C
330
270
330
271
330
272
330
276
330
277
330
283
330
287
330
28B
330
28F
330
290
330
29B
330
29C
330
2A3
330
2A7
330
2AB
330
2AF
330
2B3
330
2B7
330
2BB
330
2BF
330
2C3
330
2C4
330
2CB
330
2D5
330
2D6
330
2DD
330
2E1
330
2E6
330
2EA
330
2EF
330
2F0
330
2FC
330
2FD
330
304
330
309
330
30D
330
311
330
316
330
317
330
323
330
327
330
32B
330
32F
330
330
330
337
330
341
330
345
330
34A
330
34B
330
352
330
356
330
35A
330
35B
330
367
330
36B
330
370
330
371
330
378
330
37C
330
380
330
381
330
388
330
38C
330
390
330
394
330
395
330
39C
330
3A0
330
3A5
330
3A6
330
3AD
330
3B6
330
3BA
330
3BE
330
3BF
330
3C6
330
3D0
330
3D4
330
3D9
330
3DA
330
3E1
330
3E5
330
3E9
330
3EA
330
3F5
330
3F6
330
405
 75
     0
 76
     1
 98
        0
  0
MTEXT
  5
407
100
AcDbEntity
  8
0
100
AcDbMText
 10
25.0
 20
25.0
 30
0.0
 40
3.082006
 41
25.0
 71
     5
 72
     5
  1
\C7;\fArial|b1|i0|;\H3.0820059355348;Neu!
  0
ENDBLK
  5
408
100
AcDbEntity
  8
0
100
AcDbBlockEnd
  0
BLOCK
  5
40A
100
AcDbEntity
  8
0
100
AcDbBlockBegin
  2
NOTIZENFELD_DREIECKE
 70
     0
 10
0.0
 20
0.0
 30
0.0
  3
NOTIZENFELD_DREIECKE
  1

  0
LWPOLYLINE
  5
40B
102
{ACAD_REACTORS
330
40C
102
}
100
AcDbEntity
  8
0
  6
CONTINUOUS
 62
     7
100
AcDbPolyline
 90
        4
 70
     1
 10
124.499999
 20
90.0
 10
208.499999
 20
90.0
 10
208.499999
 20
120.0
 10
124.499999
 20
120.0
  0
HATCH
  5
40C
100
AcDbEntity
  8
0
 62
   254
100
AcDbHatch
 10
0.0
 20
0.0
 30
0.0
210
0.0
220
0.0
230
1.0
  2

 70
     1
 71
     1
 91
        1
 92
        3
 72
     0
 73
     1
 93
        4
 10
124.49999923199999
 20
90.000000480000026
 10
208.49999923199999
 20
90.000000480000026
 10
208.49999923199999
 20
120.00000048000001
 10
124.49999923199999
 20
120.00000048000001
 97
        1
330
40B
 75
     0
 76
     1
 98
        0
  0
LWPOLYLINE
  5
40D
102
{ACAD_REACTORS
330
40E
102
}
100
AcDbEntity
  8
0
  6
CONTINUOUS
 62
     7
100
AcDbPolyline
 90
        4
 70
     1
 10
125.999999
 20
91.5
 10
206.999999
 20
91.5
 10
206.999999
 20
118.5
 10
125.999999
 20
118.5
  0
HATCH
  5
40E
100
AcDbEntity
  8
0
 62
   254
100
AcDbHatch
 10
0.0
 20
0.0
 30
0.0
210
0.0
220
0.0
230
1.0
  2
SOLID
 70
     1
 71
     1
 91
        1
 92
        3
 72
     0
 73
     1
 93
        4
 10
125.99999923199999
 20
91.500000480000026
 10
206.99999923199996
 20
91.500000480000026
 10
206.99999923199996
 20
118.50000048000001
 10
125.99999923199999
 20
118.50000048000001
 97
        1
330
40D
 75
     0
 76
     1
 98
        0
  0
LWPOLYLINE
  5
40F
102
{ACAD_REACTORS
330
410
102
}
100
AcDbEntity
  8
0
  6
CONTINUOUS
 62
     7
100
AcDbPolyline
 90
        3
 70
     1
 10
125.999999
 20
118.5
 10
128.999999
 20
117.0
 10
125.999999
 20
115.5
  0
HATCH
  5
410
100
AcDbEntity
  8
0
 62
   254
100
AcDbHatch
 10
0.0
 20
0.0
 30
0.0
210
0.0
220
0.0
230
1.0
  2

 70
     1
 71
     1
 91
        1
 92
        3
 72
     0
 73
     1
 93
        3
 10
125.99999923199999
 20
118.50000048000001
 10
128.99999923199999
 20
117.00000048000003
 10
125.99999923199999
 20
115.50000048000003
 97
        1
330
40F
 75
     0
 76
     1
 98
        0
  0
MTEXT
  5
411
100
AcDbEntity
  8
0
100
AcDbMText
 10
166.499999
 20
114.459346
 30
0.0
 40
3.082006
 41
9.439551
 71
     5
 72
     5
  1
\C7;\fArial|b0|i0|;\H3.0820059355348;Titel
  0
LWPOLYLINE
  5
413
100
AcDbEntity
  8
0
  6
DASHED2
 62
     7
100
AcDbPolyline
 90
        4
 70
     0
 10
133.116131
 20
111.918692
 10
196.883868
 20
111.918692
 10
196.883868
 20
95.548585
 10
199.883868
 20
95.548585
  0
MTEXT
  5
414
100
AcDbEntity
  8
0
100
AcDbMText
 10
134.527242
 20
110.507581
 30
0.0
 40
2.054647
 41
63.767737
 71
     1
 72
     5
  1
\C7;\fArial|b0|i0|;\H2.0546471100301;Doppelklicken Sie, um Anmerkungen  \Peinzugeben.  W\U+00E4hlen Sie den Befehl "Titel"aus, \Pum den Titel zu bearbeiten.\P
  0
LWPOLYLINE
  5
415
102
{ACAD_REACTORS
330
416
102
}
100
AcDbEntity
  8
0
  6
CONTINUOUS
 62
     7
100
AcDbPolyline
 90
        3
 70
     1
 10
125.999999
 20
115.5
 10
128.999999
 20
114.0
 10
125.999999
 20
112.5
  0
HATCH
  5
416
100
AcDbEntity
  8
0
 62
   254
100
AcDbHatch
 10
0.0
 20
0.0
 30
0.0
210
0.0
220
0.0
230
1.0
  2

 70
     1
 71
     1
 91
        1
 92
        3
 72
     0
 73
     1
 93
        3
 10
125.99999923199999
 20
115.50000048000003
 10
128.99999923199999
 20
114.00000048000003
 10
125.99999923199999
 20
112.50000048000003
 97
        1
330
415
 75
     0
 76
     1
 98
        0
  0
LWPOLYLINE
  5
417
102
{ACAD_REACTORS
330
418
102
}
100
AcDbEntity
  8
0
  6
CONTINUOUS
 62
     7
100
AcDbPolyline
 90
        3
 70
     1
 10
125.999999
 20
112.5
 10
128.999999
 20
111.0
 10
125.999999
 20
109.5
  0
HATCH
  5
418
100
AcDbEntity
  8
0
 62
   254
100
AcDbHatch
 10
0.0
 20
0.0
 30
0.0
210
0.0
220
0.0
230
1.0
  2

 70
     1
 71
     1
 91
        1
 92
        3
 72
     0
 73
     1
 93
        3
 10
125.99999923199999
 20
112.50000048000003
 10
128.99999923199999
 20
111.00000048000003
 10
125.99999923199999
 20
109.50000048000004
 97
        1
330
417
 75
     0
 76
     1
 98
        0
  0
LWPOLYLINE
  5
419
102
{ACAD_REACTORS
330
41A
102
}
100
AcDbEntity
  8
0
  6
CONTINUOUS
 62
     7
100
AcDbPolyline
 90
        3
 70
     1
 10
125.999999
 20
109.5
 10
128.999999
 20
108.0
 10
125.999999
 20
106.5
  0
HATCH
  5
41A
100
AcDbEntity
  8
0
 62
   254
100
AcDbHatch
 10
0.0
 20
0.0
 30
0.0
210
0.0
220
0.0
230
1.0
  2

 70
     1
 71
     1
 91
        1
 92
        3
 72
     0
 73
     1
 93
        3
 10
125.99999923199999
 20
109.50000048000004
 10
128.99999923199999
 20
108.00000048000001
 10
125.99999923199999
 20
106.50000048000001
 97
        1
330
419
 75
     0
 76
     1
 98
        0
  0
LWPOLYLINE
  5
41B
102
{ACAD_REACTORS
330
41C
102
}
100
AcDbEntity
  8
0
  6
CONTINUOUS
 62
     7
100
AcDbPolyline
 90
        3
 70
     1
 10
125.999999
 20
106.5
 10
128.999999
 20
105.0
 10
125.999999
 20
103.5
  0
HATCH
  5
41C
100
AcDbEntity
  8
0
 62
   254
100
AcDbHatch
 10
0.0
 20
0.0
 30
0.0
210
0.0
220
0.0
230
1.0
  2

 70
     1
 71
     1
 91
        1
 92
        3
 72
     0
 73
     1
 93
        3
 10
125.99999923199999
 20
106.50000048000001
 10
128.99999923199999
 20
105.00000048000003
 10
125.99999923199999
 20
103.50000048000003
 97
        1
330
41B
 75
     0
 76
     1
 98
        0
  0
LWPOLYLINE
  5
41D
102
{ACAD_REACTORS
330
41E
102
}
100
AcDbEntity
  8
0
  6
CONTINUOUS
 62
     7
100
AcDbPolyline
 90
        3
 70
     1
 10
206.999999
 20
91.5
 10
203.999999
 20
93.0
 10
206.999999
 20
94.5
  0
HATCH
  5
41E
100
AcDbEntity
  8
0
 62
   254
100
AcDbHatch
 10
0.0
 20
0.0
 30
0.0
210
0.0
220
0.0
230
1.0
  2

 70
     1
 71
     1
 91
        1
 92
        3
 72
     0
 73
     1
 93
        3
 10
206.99999923199996
 20
91.500000480000026
 10
203.99999923199999
 20
93.000000480000011
 10
206.99999923199996
 20
94.500000480000026
 97
        1
330
41D
 75
     0
 76
     1
 98
        0
  0
LWPOLYLINE
  5
41F
102
{ACAD_REACTORS
330
420
102
}
100
AcDbEntity
  8
0
  6
CONTINUOUS
 62
     7
100
AcDbPolyline
 90
        3
 70
     1
 10
206.999999
 20
94.5
 10
203.999999
 20
96.0
 10
206.999999
 20
97.5
  0
HATCH
  5
420
100
AcDbEntity
  8
0
 62
   254
100
AcDbHatch
 10
0.0
 20
0.0
 30
0.0
210
0.0
220
0.0
230
1.0
  2

 70
     1
 71
     1
 91
        1
 92
        3
 72
     0
 73
     1
 93
        3
 10
206.99999923199996
 20
94.500000480000026
 10
203.99999923199999
 20
96.000000480000026
 10
206.99999923199996
 20
97.500000480000026
 97
        1
330
41F
 75
     0
 76
     1
 98
        0
  0
LWPOLYLINE
  5
421
102
{ACAD_REACTORS
330
422
102
}
100
AcDbEntity
  8
0
  6
CONTINUOUS
 62
     7
100
AcDbPolyline
 90
        3
 70
     1
 10
206.999999
 20
97.5
 10
203.999999
 20
99.0
 10
206.999999
 20
100.5
  0
HATCH
  5
422
100
AcDbEntity
  8
0
 62
   254
100
AcDbHatch
 10
0.0
 20
0.0
 30
0.0
210
0.0
220
0.0
230
1.0
  2

 70
     1
 71
     1
 91
        1
 92
        3
 72
     0
 73
     1
 93
        3
 10
206.99999923199996
 20
97.500000480000026
 10
203.99999923199999
 20
99.000000480000026
 10
206.99999923199996
 20
100.50000048000003
 97
        1
330
421
 75
     0
 76
     1
 98
        0
  0
ENDBLK
  5
423
100
AcDbEntity
  8
0
100
AcDbBlockEnd
  0
BLOCK
  5
425
100
AcDbEntity
  8
0
100
AcDbBlockBegin
  2
TITELBLOCK_FIRMA_1
 70
     0
 10
0.0
 20
0.0
 30
0.0
  3
TITELBLOCK_FIRMA_1
  1

  0
LWPOLYLINE
  5
426
102
{ACAD_REACTORS
330
428
102
}
100
AcDbEntity
  8
0
  6
CONTINUOUS
 62
     7
100
AcDbPolyline
 90
        6
 70
     1
 10
115.57066
 20
105.0
 10
115.57066
 20
99.556508
 42
0.414214
 10
120.57066
 20
94.556508
 10
210.57066
 20
94.556508
 42
0.414214
 10
215.57066
 20
99.556508
 10
215.57066
 20
105.0
  0
LWPOLYLINE
  5
427
102
{ACAD_REACTORS
330
428
102
}
100
AcDbEntity
  8
0
  6
CONTINUOUS
 62
     7
100
AcDbPolyline
 90
        6
 70
     1
 10
115.57066
 20
105.0
 10
215.57066
 20
105.0
 10
215.57066
 20
110.443492
 42
0.414214
 10
210.57066
 20
115.443492
 10
120.57066
 20
115.443492
 42
0.414214
 10
115.57066
 20
110.443492
  0
HATCH
  5
428
100
AcDbEntity
  8
0
 62
   254
100
AcDbHatch
 10
0.0
 20
0.0
 30
0.0
210
0.0
220
0.0
230
1.0
  2
SOLID
 70
     1
 71
     1
 91
        1
 92
        3
 72
     1
 73
     1
 93
        6
 10
115.57065972222222
 20
104.99999999999999
 42
0.0
 10
215.57065972222225
 20
104.99999999999999
 42
0.0
 10
215.57065972222222
 20
110.44349222222219
 42
0.414213562373097
 10
210.57065972222222
 20
115.44349222222222
 42
0.0
 10
120.57065972222223
 20
115.4434922222222
 42
0.4142135623731009
 10
115.57065972222222
 20
110.44349222222213
 42
0.0
 97
        2
330
426
330
427
 75
     0
 76
     1
 98
        0
  0
LINE
  5
429
100
AcDbEntity
  8
0
  6
CONTINUOUS
 62
     7
100
AcDbLine
 10
146.90566
 20
105.0
 30
0.0
 11
146.90566
 21
94.556508
 31
0.0
  0
LINE
  5
42A
100
AcDbEntity
  8
0
  6
CONTINUOUS
 62
     7
100
AcDbLine
 10
184.23566
 20
105.0
 30
0.0
 11
184.23566
 21
94.556508
 31
0.0
  0
LWPOLYLINE
  5
42B
102
{ACAD_REACTORS
330
438
102
}
100
AcDbEntity
  8
0
  6
CONTINUOUS
 62
     7
100
AcDbPolyline
 90
        4
 70
     1
 10
146.90566
 20
97.759774
 10
184.23566
 20
97.759774
 10
184.23566
 20
102.841083
 10
146.90566
 20
102.841083
  0
MTEXT
  5
42C
100
AcDbEntity
  8
0
100
AcDbMText
 10
165.57066
 20
100.300429
 30
0.0
 40
3.082006
 41
37.33
 71
     5
 72
     5
  1
\C7;\fArial|b0|i0|;\H3.0820059355348;15.02.2012
  0
LWPOLYLINE
  5
42D
102
{ACAD_REACTORS
330
438
102
}
100
AcDbEntity
  8
0
  6
CONTINUOUS
 62
     7
100
AcDbPolyline
 90
        5
 70
     1
 10
115.57066
 20
105.0
 10
115.57066
 20
99.556508
 42
0.414214
 10
120.57066
 20
94.556508
 10
146.90566
 20
94.556508
 10
146.90566
 20
105.0
  0
LWPOLYLINE
  5
42E
102
{ACAD_REACTORS
330
438
102
}
100
AcDbEntity
  8
0
  6
CONTINUOUS
 62
     7
100
AcDbPolyline
 90
        5
 70
     1
 10
184.23566
 20
105.0
 10
184.23566
 20
94.556508
 10
210.57066
 20
94.556508
 42
0.414214
 10
215.57066
 20
99.556508
 10
215.57066
 20
105.0
  0
MTEXT
  5
42F
100
AcDbEntity
  8
0
100
AcDbMText
 10
145.676181
 20
114.032381
 30
0.0
 40
4.622974
 41
42.61118
 71
     1
 72
     5
  1
\C7;\fArial|b1|i0|;\H4.6229736328125;Firmenname
  0
ENDBLK
  5
430
100
AcDbEntity
  8
0
100
AcDbBlockEnd
  0
BLOCK
  5
432
100
AcDbEntity
  8
0
100
AcDbBlockBegin
  2
TITELBLOCK_KLASSISCH
 70
     0
 10
0.0
 20
0.0
 30
0.0
  3
TITELBLOCK_KLASSISCH
  1

  0
MTEXT
  5
433
100
AcDbEntity
  8
0
100
AcDbMText
 10
148.5
 20
100.75
 30
0.0
 40
6.163941
 41
52.974393
 71
     5
 72
     5
  1
\C7;\fArial|b0|i0|;\H6.1639413300902;Titel\P\H3.0820059355348;Mittwoch, 15. Februar 2012
  0
ENDBLK
  5
434
100
AcDbEntity
  8
0
100
AcDbBlockEnd
  0
BLOCK
  5
436
100
AcDbEntity
  8
0
100
AcDbBlockBegin
  2
RAND_ELEGANT
 70
     0
 10
0.0
 20
0.0
 30
0.0
  3
RAND_ELEGANT
  1

  0
LWPOLYLINE
  5
437
102
{ACAD_REACTORS
330
438
102
}
100
AcDbEntity
  8
0
  6
CONTINUOUS
 62
     7
100
AcDbPolyline
 90
        4
 70
     1
 10
12.0
 20
12.0
 10
198.0
 20
12.0
 10
198.0
 20
11.25
 10
12.0
 20
11.25
  0
HATCH
  5
438
100
AcDbEntity
  8
0
 62
   254
100
AcDbHatch
 10
0.0
 20
0.0
 30
0.0
210
0.0
220
0.0
230
1.0
  2
SOLID
 70
     1
 71
     1
 91
        1
 92
        3
 72
     0
 73
     1
 93
        4
 10
12.000000000000012
 20
12.0
 10
198.0
 20
12.0
 10
198.0
 20
11.25
 10
12.000000000000012
 20
11.25
 97
        4
330
42B
330
42D
330
42E
330
437
 75
     0
 76
     1
 98
        0
  0
MTEXT
  5
439
100
AcDbEntity
  8
0
100
AcDbMText
 10
196.588889
 20
15.528419
 30
0.0
 40
2.568327
 41
186.0
 71
     6
 72
     5
  1
\C7;\fArial|b0|i0|;\H2.5683265227824;Zeichenblatt 3
  0
LWPOLYLINE
  5
43A
102
{ACAD_REACTORS
330
43B
102
}
100
AcDbEntity
  8
0
  6
CONTINUOUS
 62
     7
100
AcDbPolyline
 90
        8
 70
     1
 10
15.75
 20
266.105423
 10
194.25
 20
266.105423
 42
0.414223
 10
196.5
 20
268.355423
 10
196.5
 20
281.25
 42
0.414223
 10
194.25
 20
283.5
 10
15.75
 20
283.5
 42
0.414223
 10
13.5
 20
281.25
 10
13.5
 20
268.355423
 42
0.414223
  0
HATCH
  5
43B
100
AcDbEntity
  8
0
 62
   254
100
AcDbHatch
 10
0.0
 20
0.0
 30
0.0
210
0.0
220
0.0
230
1.0
  2
SOLID
 70
     1
 71
     1
 91
        4
 92
        3
 72
     1
 73
     1
 93
        8
 10
15.750000000000011
 20
266.10542250488277
 42
0.0
 10
194.24999999999997
 20
266.10542250488277
 42
0.4142231524190799
 10
196.49999999999997
 20
268.35542250488282
 42
0.0
 10
196.49999999999997
 20
281.25
 42
0.4142231524190803
 10
194.25
 20
283.49999999999994
 42
0.0
 10
15.750000000000011
 20
283.5
 42
0.4142231524190839
 10
13.500000000000012
 20
281.24999999999994
 42
0.0
 10
13.500000000000012
 20
268.35542250488277
 42
0.4142231524190838
 97
        1
330
43A
 92
        3
 72
     1
 73
     1
 93
        8
 10
15.750000000000011
 20
266.85542250488277
 42
0.0
 10
194.24999999999997
 20
266.85542250488282
 42
0.4142231524190826
 10
195.75
 20
268.35542250488282
 42
0.0
 10
195.75
 20
281.25
 42
0.4142231524190829
 10
194.25
 20
282.74999999999994
 42
0.0
 10
15.750000000000011
 20
282.75
 42
0.4142231524190843
 10
14.250000000000011
 20
281.24999999999994
 42
0.0
 10
14.250000000000014
 20
268.35542250488282
 42
0.4142231524190838
 97
        1
330
43C
 92
        3
 72
     0
 73
     1
 93
       12
 10
15.750000000000011
 20
264.60542250488277
 10
194.25
 20
264.60542250488277
 10
194.25
 20
268.35542250488282
 10
198.0
 20
268.35542250488282
 10
198.0
 20
281.24999999999994
 10
194.25
 20
281.24999999999994
 10
194.25
 20
285.0
 10
15.750000000000011
 20
285.0
 10
15.750000000000011
 20
281.24999999999994
 10
12.000000000000012
 20
281.24999999999994
 10
12.000000000000012
 20
268.35542250488282
 10
15.750000000000011
 20
268.35542250488282
 97
        1
330
43D
 92
        3
 72
     0
 73
     1
 93
       12
 10
16.500000000000011
 20
265.35542250488277
 10
193.49999999999997
 20
265.35542250488277
 10
193.49999999999997
 20
269.10542250488282
 10
197.25
 20
269.10542250488282
 10
197.25
 20
280.5
 10
193.49999999999997
 20
280.5
 10
193.49999999999997
 20
284.24999999999994
 10
16.500000000000011
 20
284.24999999999994
 10
16.500000000000011
 20
280.5
 10
12.750000000000011
 20
280.5
 10
12.750000000000011
 20
269.10542250488282
 10
16.500000000000011
 20
269.10542250488282
 97
        1
330
43E
 75
     0
 76
     1
 98
        0
  0
LWPOLYLINE
  5
43C
102
{ACAD_REACTORS
330
43B
102
}
100
AcDbEntity
  8
0
  6
CONTINUOUS
 62
     7
100
AcDbPolyline
 90
        8
 70
     1
 10
15.75
 20
266.855423
 10
194.25
 20
266.855423
 42
0.414223
 10
195.75
 20
268.355423
 10
195.75
 20
281.25
 42
0.414223
 10
194.25
 20
282.75
 10
15.75
 20
282.75
 42
0.414223
 10
14.25
 20
281.25
 10
14.25
 20
268.355423
 42
0.414223
  0
LWPOLYLINE
  5
43D
102
{ACAD_REACTORS
330
43B
102
}
100
AcDbEntity
  8
0
  6
CONTINUOUS
 62
     7
100
AcDbPolyline
 90
       12
 70
     1
 10
15.75
 20
264.605423
 10
194.25
 20
264.605423
 10
194.25
 20
268.355423
 10
198.0
 20
268.355423
 10
198.0
 20
281.25
 10
194.25
 20
281.25
 10
194.25
 20
285.0
 10
15.75
 20
285.0
 10
15.75
 20
281.25
 10
12.0
 20
281.25
 10
12.0
 20
268.355423
 10
15.75
 20
268.355423
  0
LWPOLYLINE
  5
43E
102
{ACAD_REACTORS
330
43B
102
}
100
AcDbEntity
  8
0
  6
CONTINUOUS
 62
     7
100
AcDbPolyline
 90
       12
 70
     1
 10
16.5
 20
265.355423
 10
193.5
 20
265.355423
 10
193.5
 20
269.105423
 10
197.25
 20
269.105423
 10
197.25
 20
280.5
 10
193.5
 20
280.5
 10
193.5
 20
284.25
 10
16.5
 20
284.25
 10
16.5
 20
280.5
 10
12.75
 20
280.5
 10
12.75
 20
269.105423
 10
16.5
 20
269.105423
  0
MTEXT
  5
43F
100
AcDbEntity
  8
0
100
AcDbMText
 10
105.0
 20
274.802711
 30
0.0
 40
6.163941
 41
178.5
 71
     5
 72
     5
  1
\C7;\fArial|b0|i0|;\H6.1639413300902;T\H4.9310966312885;ITEL\P\H2.5683265227824;M\H2.0546471100301;ITTWOCH\H2.5683265227824;, 15. F\H2.0546471100301;EBRUAR\H2.5683265227824; 2012
  0
ENDBLK
  5
440
100
AcDbEntity
  8
0
100
AcDbBlockEnd
  0
BLOCK
  5
442
100
AcDbEntity
  8
0
100
AcDbBlockBegin
  2
RAND_DREIECKE
 70
     0
 10
0.0
 20
0.0
 30
0.0
  3
RAND_DREIECKE
  1

  0
LWPOLYLINE
  5
443
102
{ACAD_REACTORS
330
444
102
}
100
AcDbEntity
  8
0
  6
CONTINUOUS
 62
     7
100
AcDbPolyline
 90
        3
 70
     1
 10
200.0
 20
50.0
 10
200.0
 20
60.0
 10
190.0
 20
55.0
  0
HATCH
  5
444
100
AcDbEntity
  8
0
 62
   254
100
AcDbHatch
 10
0.0
 20
0.0
 30
0.0
210
0.0
220
0.0
230
1.0
  2

 70
     1
 71
     1
 91
        5
 92
        3
 72
     0
 73
     1
 93
        3
 10
199.99999999999997
 20
50.0
 10
199.99999999999997
 20
60.0
 10
189.99999999999997
 20
55.000000000000014
 97
        1
330
443
 92
        3
 72
     0
 73
     1
 93
        3
 10
199.99999999999997
 20
39.999999999999993
 10
199.99999999999997
 20
50.0
 10
189.99999999999997
 20
45.000000000000007
 97
        1
330
445
 92
        3
 72
     0
 73
     1
 93
        3
 10
199.99999999999997
 20
30.0
 10
199.99999999999997
 20
39.999999999999993
 10
189.99999999999997
 20
35.0
 97
        1
330
446
 92
        3
 72
     0
 73
     1
 93
        3
 10
199.99999999999997
 20
20.000000000000004
 10
199.99999999999997
 20
30.0
 10
189.99999999999997
 20
25.000000000000004
 97
        1
330
447
 92
        3
 72
     0
 73
     1
 93
        3
 10
199.99999999999997
 20
10.000000000000004
 10
199.99999999999997
 20
20.000000000000004
 10
189.99999999999997
 20
15.000000000000004
 97
        1
330
448
 75
     0
 76
     1
 98
        0
  0
LWPOLYLINE
  5
445
102
{ACAD_REACTORS
330
444
102
}
100
AcDbEntity
  8
0
  6
CONTINUOUS
 62
     7
100
AcDbPolyline
 90
        3
 70
     1
 10
200.0
 20
40.0
 10
200.0
 20
50.0
 10
190.0
 20
45.0
  0
LWPOLYLINE
  5
446
102
{ACAD_REACTORS
330
444
102
}
100
AcDbEntity
  8
0
  6
CONTINUOUS
 62
     7
100
AcDbPolyline
 90
        3
 70
     1
 10
200.0
 20
30.0
 10
200.0
 20
40.0
 10
190.0
 20
35.0
  0
LWPOLYLINE
  5
447
102
{ACAD_REACTORS
330
444
102
}
100
AcDbEntity
  8
0
  6
CONTINUOUS
 62
     7
100
AcDbPolyline
 90
        3
 70
     1
 10
200.0
 20
20.0
 10
200.0
 20
30.0
 10
190.0
 20
25.0
  0
LWPOLYLINE
  5
448
102
{ACAD_REACTORS
330
444
102
}
100
AcDbEntity
  8
0
  6
CONTINUOUS
 62
     7
100
AcDbPolyline
 90
        3
 70
     1
 10
200.0
 20
10.0
 10
200.0
 20
20.0
 10
190.0
 20
15.0
  0
LWPOLYLINE
  5
449
102
{ACAD_REACTORS
330
44A
102
}
100
AcDbEntity
  8
0
  6
CONTINUOUS
 62
     7
100
AcDbPolyline
 90
        3
 70
     1
 10
10.0
 20
227.0
 10
10.0
 20
217.0
 10
20.0
 20
222.0
  0
HATCH
  5
44A
100
AcDbEntity
  8
0
 62
   254
100
AcDbHatch
 10
0.0
 20
0.0
 30
0.0
210
0.0
220
0.0
230
1.0
  2

 70
     1
 71
     1
 91
       11
 92
        3
 72
     0
 73
     1
 93
        3
 10
10.000000000000004
 20
226.99999999999946
 10
10.000000000000004
 20
216.99999999999955
 10
20.000000000000004
 20
222.00000000000006
 97
        1
330
449
 92
        3
 72
     0
 73
     1
 93
        3
 10
10.000000000000004
 20
216.99999999999955
 10
10.000000000000004
 20
206.99999999999966
 10
20.000000000000004
 20
212.00000000000014
 97
        1
330
44B
 92
        3
 72
     0
 73
     1
 93
        3
 10
10.000000000000004
 20
206.99999999999966
 10
10.000000000000004
 20
196.99999999999974
 10
20.000000000000004
 20
202.00000000000026
 97
        1
330
44C
 92
        3
 72
     0
 73
     1
 93
        3
 10
10.000000000000004
 20
196.99999999999974
 10
10.000000000000004
 20
186.99999999999997
 10
20.000000000000004
 20
192.00000000000037
 97
        1
330
44D
 92
        3
 72
     0
 73
     1
 93
        3
 10
10.000000000000004
 20
186.99999999999997
 10
10.000000000000004
 20
176.99999999999997
 10
20.000000000000004
 20
181.99999999999991
 97
        1
330
44E
 92
        3
 72
     0
 73
     1
 93
        3
 10
10.000000000000004
 20
277.0
 10
10.000000000000004
 20
267.00000000000017
 10
20.000000000000004
 20
271.99999999999949
 97
        1
330
44F
 92
        3
 72
     0
 73
     1
 93
        3
 10
10.000000000000004
 20
267.00000000000017
 10
10.000000000000004
 20
257.00000000000028
 10
20.000000000000004
 20
261.99999999999972
 97
        1
330
450
 92
        3
 72
     0
 73
     1
 93
        3
 10
10.000000000000004
 20
257.00000000000028
 10
10.000000000000004
 20
247.00000000000031
 10
20.000000000000004
 20
251.99999999999972
 97
        1
330
451
 92
        3
 72
     0
 73
     1
 93
        3
 10
10.000000000000004
 20
247.00000000000031
 10
10.000000000000004
 20
237.00000000000043
 10
20.000000000000004
 20
241.99999999999983
 97
        1
330
452
 92
        3
 72
     0
 73
     1
 93
        3
 10
10.000000000000004
 20
237.00000000000043
 10
10.000000000000004
 20
226.99999999999946
 10
20.000000000000004
 20
231.99999999999994
 97
        1
330
453
 92
        3
 72
     0
 73
     1
 93
        3
 10
10.000000000000004
 20
286.99999999999994
 10
10.000000000000004
 20
277.0
 10
20.000000000000004
 20
281.99999999999949
 97
        1
330
454
 75
     0
 76
     1
 98
        0
  0
LWPOLYLINE
  5
44B
102
{ACAD_REACTORS
330
44A
102
}
100
AcDbEntity
  8
0
  6
CONTINUOUS
 62
     7
100
AcDbPolyline
 90
        3
 70
     1
 10
10.0
 20
217.0
 10
10.0
 20
207.0
 10
20.0
 20
212.0
  0
LWPOLYLINE
  5
44C
102
{ACAD_REACTORS
330
44A
102
}
100
AcDbEntity
  8
0
  6
CONTINUOUS
 62
     7
100
AcDbPolyline
 90
        3
 70
     1
 10
10.0
 20
207.0
 10
10.0
 20
197.0
 10
20.0
 20
202.0
  0
LWPOLYLINE
  5
44D
102
{ACAD_REACTORS
330
44A
102
}
100
AcDbEntity
  8
0
  6
CONTINUOUS
 62
     7
100
AcDbPolyline
 90
        3
 70
     1
 10
10.0
 20
197.0
 10
10.0
 20
187.0
 10
20.0
 20
192.0
  0
LWPOLYLINE
  5
44E
102
{ACAD_REACTORS
330
44A
102
}
100
AcDbEntity
  8
0
  6
CONTINUOUS
 62
     7
100
AcDbPolyline
 90
        3
 70
     1
 10
10.0
 20
187.0
 10
10.0
 20
177.0
 10
20.0
 20
182.0
  0
LWPOLYLINE
  5
44F
102
{ACAD_REACTORS
330
44A
102
}
100
AcDbEntity
  8
0
  6
CONTINUOUS
 62
     7
100
AcDbPolyline
 90
        3
 70
     1
 10
10.0
 20
277.0
 10
10.0
 20
267.0
 10
20.0
 20
272.0
  0
LWPOLYLINE
  5
450
102
{ACAD_REACTORS
330
44A
102
}
100
AcDbEntity
  8
0
  6
CONTINUOUS
 62
     7
100
AcDbPolyline
 90
        3
 70
     1
 10
10.0
 20
267.0
 10
10.0
 20
257.0
 10
20.0
 20
262.0
  0
LWPOLYLINE
  5
451
102
{ACAD_REACTORS
330
44A
102
}
100
AcDbEntity
  8
0
  6
CONTINUOUS
 62
     7
100
AcDbPolyline
 90
        3
 70
     1
 10
10.0
 20
257.0
 10
10.0
 20
247.0
 10
20.0
 20
252.0
  0
LWPOLYLINE
  5
452
102
{ACAD_REACTORS
330
44A
102
}
100
AcDbEntity
  8
0
  6
CONTINUOUS
 62
     7
100
AcDbPolyline
 90
        3
 70
     1
 10
10.0
 20
247.0
 10
10.0
 20
237.0
 10
20.0
 20
242.0
  0
LWPOLYLINE
  5
453
102
{ACAD_REACTORS
330
44A
102
}
100
AcDbEntity
  8
0
  6
CONTINUOUS
 62
     7
100
AcDbPolyline
 90
        3
 70
     1
 10
10.0
 20
237.0
 10
10.0
 20
227.0
 10
20.0
 20
232.0
  0
LWPOLYLINE
  5
454
102
{ACAD_REACTORS
330
44A
102
}
100
AcDbEntity
  8
0
  6
CONTINUOUS
 62
     7
100
AcDbPolyline
 90
        3
 70
     1
 10
10.0
 20
287.0
 10
10.0
 20
277.0
 10
20.0
 20
282.0
  0
ENDBLK
  5
455
100
AcDbEntity
  8
0
100
AcDbBlockEnd
  0
BLOCK
  5
457
100
AcDbEntity
  8
0
100
AcDbBlockBegin
  2
RAND_TECHNISCH_1
 70
     0
 10
0.0
 20
0.0
 30
0.0
  3
RAND_TECHNISCH_1
  1

  0
LWPOLYLINE
  5
458
102
{ACAD_REACTORS
330
459
102
}
100
AcDbEntity
  8
0
  6
CONTINUOUS
 62
     7
100
AcDbPolyline
 90
        4
 70
     1
 10
156.0
 20
12.5
 10
201.0
 20
12.5
 10
201.0
 20
284.5
 10
156.0
 20
284.5
  0
HATCH
  5
459
100
AcDbEntity
  8
0
 62
   254
100
AcDbHatch
 10
0.0
 20
0.0
 30
0.0
210
0.0
220
0.0
230
1.0
  2
SOLID
 70
     1
 71
     1
 91
        1
 92
        3
 72
     0
 73
     1
 93
        4
 10
156.00000003824837
 20
12.5
 10
200.99999996958962
 20
12.5
 10
200.99999996958962
 20
284.49999999999989
 10
156.00000003824837
 20
284.49999999999989
 97
        1
330
458
 75
     0
 76
     1
 98
        0
  0
LINE
  5
45A
100
AcDbEntity
  8
0
  6
CONTINUOUS
 62
     7
100
AcDbLine
 10
156.0
 20
14.119048
 30
0.0
 11
201.0
 21
14.119048
 31
0.0
  0
LWPOLYLINE
  5
45B
102
{ACAD_REACTORS
330
45C
102
}
100
AcDbEntity
  8
0
  6
CONTINUOUS
 62
     7
100
AcDbPolyline
 90
        4
 70
     1
 10
178.5
 20
30.6424
 10
178.5
 20
98.6424
 10
156.0
 20
98.6424
 10
156.0
 20
30.6424
  0
HATCH
  5
45C
100
AcDbEntity
  8
0
 62
   254
100
AcDbHatch
 10
0.0
 20
0.0
 30
0.0
210
0.0
220
0.0
230
1.0
  2
SOLID
 70
     1
 71
     1
 91
        1
 92
        3
 72
     0
 73
     1
 93
        4
 10
178.49999999999997
 20
30.642399999999995
 10
178.49999999999997
 20
98.642399999999967
 10
155.99999999999997
 20
98.642399999999967
 10
155.99999999999997
 20
30.642399999999995
 97
        1
330
45B
 75
     0
 76
     1
 98
        0
  0
LWPOLYLINE
  5
45D
102
{ACAD_REACTORS
330
45E
102
}
100
AcDbEntity
  8
0
  6
CONTINUOUS
 62
     7
100
AcDbPolyline
 90
        4
 70
     1
 10
189.75
 20
30.6424
 10
189.75
 20
64.6424
 10
178.5
 20
64.6424
 10
178.5
 20
30.6424
  0
HATCH
  5
45E
100
AcDbEntity
  8
0
 62
   254
100
AcDbHatch
 10
0.0
 20
0.0
 30
0.0
210
0.0
220
0.0
230
1.0
  2
SOLID
 70
     1
 71
     1
 91
        1
 92
        3
 72
     0
 73
     1
 93
        4
 10
189.74999999999997
 20
30.642399999999995
 10
189.74999999999997
 20
64.642399999999981
 10
178.49999999999997
 20
64.642399999999981
 10
178.49999999999997
 20
30.642399999999995
 97
        1
330
45D
 75
     0
 76
     1
 98
        0
  0
LWPOLYLINE
  5
45F
102
{ACAD_REACTORS
330
460
102
}
100
AcDbEntity
  8
0
  6
CONTINUOUS
 62
     7
100
AcDbPolyline
 90
        4
 70
     1
 10
189.75
 20
64.6424
 10
189.75
 20
98.6424
 10
178.5
 20
98.6424
 10
178.5
 20
64.6424
  0
HATCH
  5
460
100
AcDbEntity
  8
0
 62
   254
100
AcDbHatch
 10
0.0
 20
0.0
 30
0.0
210
0.0
220
0.0
230
1.0
  2
SOLID
 70
     1
 71
     1
 91
        1
 92
        3
 72
     0
 73
     1
 93
        4
 10
189.74999999999997
 20
64.642399999999981
 10
189.74999999999997
 20
98.642399999999967
 10
178.49999999999997
 20
98.642399999999967
 10
178.49999999999997
 20
64.642399999999981
 97
        1
330
45F
 75
     0
 76
     1
 98
        0
  0
LWPOLYLINE
  5
461
102
{ACAD_REACTORS
330
462
102
}
100
AcDbEntity
  8
0
  6
CONTINUOUS
 62
     7
100
AcDbPolyline
 90
        4
 70
     1
 10
201.0
 20
30.6424
 10
201.0
 20
64.6424
 10
189.75
 20
64.6424
 10
189.75
 20
30.6424
  0
HATCH
  5
462
100
AcDbEntity
  8
0
 62
   254
100
AcDbHatch
 10
0.0
 20
0.0
 30
0.0
210
0.0
220
0.0
230
1.0
  2
SOLID
 70
     1
 71
     1
 91
        1
 92
        3
 72
     0
 73
     1
 93
        4
 10
200.99999999999997
 20
30.642399999999995
 10
200.99999999999997
 20
64.642399999999981
 10
189.74999999999997
 20
64.642399999999981
 10
189.74999999999997
 20
30.642399999999995
 97
        1
330
461
 75
     0
 76
     1
 98
        0
  0
LWPOLYLINE
  5
463
102
{ACAD_REACTORS
330
464
102
}
100
AcDbEntity
  8
0
  6
CONTINUOUS
 62
     7
100
AcDbPolyline
 90
        4
 70
     1
 10
201.0
 20
64.6424
 10
201.0
 20
98.6424
 10
189.75
 20
98.6424
 10
189.75
 20
64.6424
  0
HATCH
  5
464
100
AcDbEntity
  8
0
 62
   254
100
AcDbHatch
 10
0.0
 20
0.0
 30
0.0
210
0.0
220
0.0
230
1.0
  2
SOLID
 70
     1
 71
     1
 91
        1
 92
        3
 72
     0
 73
     1
 93
        4
 10
200.99999999999997
 20
64.642399999999981
 10
200.99999999999997
 20
98.642399999999967
 10
189.74999999999997
 20
98.642399999999967
 10
189.74999999999997
 20
64.642399999999981
 97
        1
330
463
 75
     0
 76
     1
 98
        0
  0
MTEXT
  5
465
100
AcDbEntity
  8
0
100
AcDbMText
 10
180.107143
 20
38.446609
 30
0.0
 40
1.025736
 41
15.608418
 71
     5
 72
     5
  1
\C7;\fArial|b0|i0|;\H1.0257363829762;DATUM ORIGINAL
 11
0.0
 21
1.0
 31
0.0
  0
MTEXT
  5
466
100
AcDbEntity
  8
0
100
AcDbMText
 10
191.357143
 20
41.265187
 30
0.0
 40
1.025736
 41
21.245574
 71
     5
 72
     5
  1
\C7;\fArial|b0|i0|;\H1.0257363829762;LETZTE \U+00DCBERARBEITUNG
 11
0.0
 21
1.0
 31
0.0
  0
MTEXT
  5
467
100
AcDbEntity
  8
0
100
AcDbMText
 10
180.107143
 20
70.216367
 30
0.0
 40
1.025736
 41
11.147935
 71
     5
 72
     5
  1
\C7;\fArial|b0|i0|;\H1.0257363829762;MASSSTAB
 11
0.0
 21
1.0
 31
0.0
  0
MTEXT
  5
468
100
AcDbEntity
  8
0
100
AcDbMText
 10
191.357143
 20
71.428793
 30
0.0
 40
1.025736
 41
13.572787
 71
     5
 72
     5
  1
\C7;\fArial|b0|i0|;\H1.0257363829762;AUFTRAGSNR.
 11
0.0
 21
1.0
 31
0.0
  0
LWPOLYLINE
  5
469
102
{ACAD_REACTORS
330
46A
102
}
100
AcDbEntity
  8
0
  6
CONTINUOUS
 62
     7
100
AcDbPolyline
 90
        4
 70
     1
 10
163.5
 20
98.6424
 10
163.5
 20
166.6424
 10
156.0
 20
166.6424
 10
156.0
 20
98.6424
  0
HATCH
  5
46A
100
AcDbEntity
  8
0
 62
   254
100
AcDbHatch
 10
0.0
 20
0.0
 30
0.0
210
0.0
220
0.0
230
1.0
  2
SOLID
 70
     1
 71
     1
 91
        1
 92
        3
 72
     0
 73
     1
 93
        4
 10
163.49999999999994
 20
98.642399999999995
 10
163.49999999999994
 20
166.64239999999998
 10
155.99999999999997
 20
166.64239999999998
 10
155.99999999999997
 20
98.642399999999995
 97
        1
330
469
 75
     0
 76
     1
 98
        0
  0
MTEXT
  5
46B
100
AcDbEntity
  8
0
100
AcDbMText
 10
158.5
 20
116.172918
 30
0.0
 40
2.062971
 41
35.061037
 71
     5
 72
     5
  1
\C7;\fArial|b0|i0|;\H2.0629709456116;\U+00DCBERARBEITUNGEN
 11
0.0
 21
1.0
 31
0.0
  0
LWPOLYLINE
  5
46C
102
{ACAD_REACTORS
330
46D
102
}
100
AcDbEntity
  8
0
  6
CONTINUOUS
 62
     7
100
AcDbPolyline
 90
        4
 70
     1
 10
167.25
 20
98.6424
 10
167.25
 20
166.6424
 10
163.5
 20
166.6424
 10
163.5
 20
98.6424
  0
HATCH
  5
46D
100
AcDbEntity
  8
0
 62
   254
100
AcDbHatch
 10
0.0
 20
0.0
 30
0.0
210
0.0
220
0.0
230
1.0
  2
SOLID
 70
     1
 71
     1
 91
        1
 92
        3
 72
     0
 73
     1
 93
        4
 10
167.24999999999997
 20
98.642399999999995
 10
167.24999999999997
 20
166.64239999999998
 10
163.49999999999997
 20
166.64239999999998
 10
163.49999999999997
 20
98.642399999999995
 97
        1
330
46C
 75
     0
 76
     1
 98
        0
  0
LWPOLYLINE
  5
46E
102
{ACAD_REACTORS
330
46F
102
}
100
AcDbEntity
  8
0
  6
CONTINUOUS
 62
     7
100
AcDbPolyline
 90
        4
 70
     1
 10
171.0
 20
98.6424
 10
171.0
 20
166.6424
 10
167.25
 20
166.6424
 10
167.25
 20
98.6424
  0
HATCH
  5
46F
100
AcDbEntity
  8
0
 62
   254
100
AcDbHatch
 10
0.0
 20
0.0
 30
0.0
210
0.0
220
0.0
230
1.0
  2
SOLID
 70
     1
 71
     1
 91
        1
 92
        3
 72
     0
 73
     1
 93
        4
 10
170.99999999999997
 20
98.642399999999995
 10
170.99999999999997
 20
166.64239999999998
 10
167.24999999999997
 20
166.64239999999998
 10
167.24999999999997
 20
98.642399999999995
 97
        1
330
46E
 75
     0
 76
     1
 98
        0
  0
LWPOLYLINE
  5
470
102
{ACAD_REACTORS
330
471
102
}
100
AcDbEntity
  8
0
  6
CONTINUOUS
 62
     7
100
AcDbPolyline
 90
        4
 70
     1
 10
174.75
 20
98.6424
 10
174.75
 20
166.6424
 10
171.0
 20
166.6424
 10
171.0
 20
98.6424
  0
HATCH
  5
471
100
AcDbEntity
  8
0
 62
   254
100
AcDbHatch
 10
0.0
 20
0.0
 30
0.0
210
0.0
220
0.0
230
1.0
  2
SOLID
 70
     1
 71
     1
 91
        1
 92
        3
 72
     0
 73
     1
 93
        4
 10
174.74999999999997
 20
98.642399999999995
 10
174.74999999999997
 20
166.64239999999998
 10
170.99999999999997
 20
166.64239999999998
 10
170.99999999999997
 20
98.642399999999995
 97
        1
330
470
 75
     0
 76
     1
 98
        0
  0
LWPOLYLINE
  5
472
102
{ACAD_REACTORS
330
473
102
}
100
AcDbEntity
  8
0
  6
CONTINUOUS
 62
     7
100
AcDbPolyline
 90
        4
 70
     1
 10
178.5
 20
98.6424
 10
178.5
 20
166.6424
 10
174.75
 20
166.6424
 10
174.75
 20
98.6424
  0
HATCH
  5
473
100
AcDbEntity
  8
0
 62
   254
100
AcDbHatch
 10
0.0
 20
0.0
 30
0.0
210
0.0
220
0.0
230
1.0
  2
SOLID
 70
     1
 71
     1
 91
        1
 92
        3
 72
     0
 73
     1
 93
        4
 10
178.49999999999997
 20
98.642399999999995
 10
178.49999999999997
 20
166.64239999999998
 10
174.74999999999997
 20
166.64239999999998
 10
174.74999999999997
 20
98.642399999999995
 97
        1
330
472
 75
     0
 76
     1
 98
        0
  0
LWPOLYLINE
  5
474
102
{ACAD_REACTORS
330
475
102
}
100
AcDbEntity
  8
0
  6
CONTINUOUS
 62
     7
100
AcDbPolyline
 90
        4
 70
     1
 10
182.25
 20
98.6424
 10
182.25
 20
166.6424
 10
178.5
 20
166.6424
 10
178.5
 20
98.6424
  0
HATCH
  5
475
100
AcDbEntity
  8
0
 62
   254
100
AcDbHatch
 10
0.0
 20
0.0
 30
0.0
210
0.0
220
0.0
230
1.0
  2
SOLID
 70
     1
 71
     1
 91
        1
 92
        3
 72
     0
 73
     1
 93
        4
 10
182.24999999999997
 20
98.642399999999995
 10
182.24999999999997
 20
166.64239999999998
 10
178.49999999999997
 20
166.64239999999998
 10
178.49999999999997
 20
98.642399999999995
 97
        1
330
474
 75
     0
 76
     1
 98
        0
  0
LWPOLYLINE
  5
476
102
{ACAD_REACTORS
330
477
102
}
100
AcDbEntity
  8
0
  6
CONTINUOUS
 62
     7
100
AcDbPolyline
 90
        4
 70
     1
 10
186.0
 20
98.6424
 10
186.0
 20
166.6424
 10
182.25
 20
166.6424
 10
182.25
 20
98.6424
  0
HATCH
  5
477
100
AcDbEntity
  8
0
 62
   254
100
AcDbHatch
 10
0.0
 20
0.0
 30
0.0
210
0.0
220
0.0
230
1.0
  2
SOLID
 70
     1
 71
     1
 91
        1
 92
        3
 72
     0
 73
     1
 93
        4
 10
185.99999999999997
 20
98.642399999999995
 10
185.99999999999997
 20
166.64239999999998
 10
182.24999999999997
 20
166.64239999999998
 10
182.24999999999997
 20
98.642399999999995
 97
        1
330
476
 75
     0
 76
     1
 98
        0
  0
LWPOLYLINE
  5
478
102
{ACAD_REACTORS
330
479
102
}
100
AcDbEntity
  8
0
  6
CONTINUOUS
 62
     7
100
AcDbPolyline
 90
        4
 70
     1
 10
189.75
 20
98.6424
 10
189.75
 20
166.6424
 10
186.0
 20
166.6424
 10
186.0
 20
98.6424
  0
HATCH
  5
479
100
AcDbEntity
  8
0
 62
   254
100
AcDbHatch
 10
0.0
 20
0.0
 30
0.0
210
0.0
220
0.0
230
1.0
  2
SOLID
 70
     1
 71
     1
 91
        1
 92
        3
 72
     0
 73
     1
 93
        4
 10
189.74999999999997
 20
98.642399999999995
 10
189.74999999999997
 20
166.64239999999998
 10
185.99999999999997
 20
166.64239999999998
 10
185.99999999999997
 20
98.642399999999995
 97
        1
330
478
 75
     0
 76
     1
 98
        0
  0
LINE
  5
47A
100
AcDbEntity
  8
0
  6
CONTINUOUS
 62
     7
100
AcDbLine
 10
163.5
 20
104.546057
 30
0.0
 11
189.75
 21
104.546057
 31
0.0
  0
MTEXT
  5
47B
100
AcDbEntity
  8
0
100
AcDbMText
 10
165.375
 20
101.594229
 30
0.0
 40
1.025736
 41
5.903657
 71
     5
 72
     5
  1
\C7;\fArial|b0|i0|;\H1.0257363829762;NR.
 11
0.0
 21
1.0
 31
0.0
  0
LINE
  5
47C
100
AcDbEntity
  8
0
  6
CONTINUOUS
 62
     7
100
AcDbLine
 10
163.5
 20
113.032309
 30
0.0
 11
189.75
 21
113.032309
 31
0.0
  0
MTEXT
  5
47D
100
AcDbEntity
  8
0
100
AcDbMText
 10
165.375
 20
108.789183
 30
0.0
 40
1.025736
 41
8.486252
 71
     5
 72
     5
  1
\C7;\fArial|b0|i0|;\H1.0257363829762;DATUM
 11
0.0
 21
1.0
 31
0.0
  0
MTEXT
  5
47E
100
AcDbEntity
  8
0
100
AcDbMText
 10
165.375
 20
120.407705
 30
0.0
 40
1.025736
 41
14.750792
 71
     5
 72
     5
  1
\C7;\fArial|b0|i0|;\H1.0257363829762;BESCHREIBUNG
 11
0.0
 21
1.0
 31
0.0
  0
LWPOLYLINE
  5
47F
102
{ACAD_REACTORS
330
480
102
}
100
AcDbEntity
  8
0
  6
CONTINUOUS
 62
     7
100
AcDbPolyline
 90
        4
 70
     1
 10
201.0
 20
98.6424
 10
201.0
 20
132.6424
 10
189.75
 20
132.6424
 10
189.75
 20
98.6424
  0
HATCH
  5
480
100
AcDbEntity
  8
0
 62
   254
100
AcDbHatch
 10
0.0
 20
0.0
 30
0.0
210
0.0
220
0.0
230
1.0
  2
SOLID
 70
     1
 71
     1
 91
        1
 92
        3
 72
     0
 73
     1
 93
        4
 10
200.99999999999997
 20
98.642399999999995
 10
200.99999999999997
 20
132.64240000000001
 10
189.74999999999997
 20
132.64240000000001
 10
189.74999999999997
 20
98.642399999999995
 97
        1
330
47F
 75
     0
 76
     1
 98
        0
  0
LWPOLYLINE
  5
481
102
{ACAD_REACTORS
330
482
102
}
100
AcDbEntity
  8
0
  6
CONTINUOUS
 62
     7
100
AcDbPolyline
 90
        4
 70
     1
 10
201.0
 20
132.6424
 10
201.0
 20
166.6424
 10
189.75
 20
166.6424
 10
189.75
 20
132.6424
  0
HATCH
  5
482
100
AcDbEntity
  8
0
 62
   254
100
AcDbHatch
 10
0.0
 20
0.0
 30
0.0
210
0.0
220
0.0
230
1.0
  2
SOLID
 70
     1
 71
     1
 91
        1
 92
        3
 72
     0
 73
     1
 93
        4
 10
200.99999999999997
 20
132.64240000000001
 10
200.99999999999997
 20
166.64239999999998
 10
189.74999999999997
 20
166.64239999999998
 10
189.74999999999997
 20
132.64240000000001
 97
        1
330
481
 75
     0
 76
     1
 98
        0
  0
MTEXT
  5
483
100
AcDbEntity
  8
0
100
AcDbMText
 10
191.357143
 20
137.942498
 30
0.0
 40
1.025736
 41
10.600197
 71
     5
 72
     5
  1
\C7;\fArial|b0|i0|;\H1.0257363829762;ERSTELLT
 11
0.0
 21
1.0
 31
0.0
  0
MTEXT
  5
484
100
AcDbEntity
  8
0
100
AcDbMText
 10
191.357143
 20
103.745708
 30
0.0
 40
1.025736
 41
10.206616
 71
     5
 72
     5
  1
\C7;\fArial|b0|i0|;\H1.0257363829762;GEPR\U+00DCFT
 11
0.0
 21
1.0
 31
0.0
  0
LINE
  5
485
100
AcDbEntity
  8
0
  6
CONTINUOUS
 62
     7
100
AcDbLine
 10
156.0
 20
165.0104
 30
0.0
 11
201.0
 21
165.0104
 31
0.0
  0
LINE
  5
486
100
AcDbEntity
  8
0
  6
CONTINUOUS
 62
     7
100
AcDbLine
 10
156.0
 20
282.880952
 30
0.0
 11
201.0
 21
282.880952
 31
0.0
  0
MTEXT
  5
487
100
AcDbEntity
  8
0
100
AcDbMText
 10
158.5
 20
37.860127
 30
0.0
 40
2.062971
 41
14.435455
 71
     5
 72
     5
  1
\C7;\fArial|b0|i0|;\H2.0629709456116;TITEL
 11
0.0
 21
1.0
 31
0.0
  0
ENDBLK
  5
488
100
AcDbEntity
  8
0
100
AcDbBlockEnd
  0
BLOCK
  5
48A
100
AcDbEntity
  8
0
100
AcDbBlockBegin
  2
RAND_TECHNISCH_2
 70
     0
 10
0.0
 20
0.0
 30
0.0
  3
RAND_TECHNISCH_2
  1

  0
LINE
  5
48B
100
AcDbEntity
  8
0
  6
CONTINUOUS
 62
     7
100
AcDbLine
 10
155.5
 20
285.0
 30
0.0
 11
155.5
 21
12.0
 31
0.0
  0
MTEXT
  5
48C
100
AcDbEntity
  8
0
100
AcDbMText
 10
160.866667
 20
68.82226
 30
0.0
 40
1.284128
 41
5.92931
 71
     5
 72
     5
  1
\C7;\fArial|b0|i0|;\H1.2841279909015;Nr.
  0
MTEXT
  5
48D
100
AcDbEntity
  8
0
100
AcDbMText
 10
184.633333
 20
68.82226
 30
0.0
 40
1.284128
 41
6.716472
 71
     5
 72
     5
  1
\C7;\fArial|b0|i0|;\H1.2841279909015;Von
  0
MTEXT
  5
48E
100
AcDbEntity
  8
0
100
AcDbMText
 10
172.366667
 20
68.82226
 30
0.0
 40
1.284128
 41
8.773129
 71
     5
 72
     5
  1
\C7;\fArial|b0|i0|;\H1.2841279909015;Datum
  0
MTEXT
  5
48F
100
AcDbEntity
  8
0
100
AcDbMText
 10
196.516667
 20
68.82226
 30
0.0
 40
1.284128
 41
14.756097
 71
     5
 72
     5
  1
\C7;\fArial|b0|i0|;\H1.2841279909015;\U+00DCberarbeitung
  0
MTEXT
  5
490
100
AcDbEntity
  8
0
100
AcDbMText
 10
162.596764
 20
29.199225
 30
0.0
 40
1.284128
 41
11.126861
 71
     5
 72
     5
  1
\C7;\fArial|b0|i0|;\H1.2841279909015;Designer:
  0
MTEXT
  5
491
100
AcDbEntity
  8
0
100
AcDbMText
 10
163.429659
 20
24.012113
 30
0.0
 40
1.284128
 41
12.792651
 71
     5
 72
     5
  1
\C7;\fArial|b0|i0|;\H1.2841279909015;Erstellt von:
  0
MTEXT
  5
492
100
AcDbEntity
  8
0
100
AcDbMText
 10
164.558272
 20
18.825
 30
0.0
 40
1.284128
 41
15.049878
 71
     5
 72
     5
  1
\C7;\fArial|b0|i0|;\H1.2841279909015;Abgabetermin:
  0
LINE
  5
493
100
AcDbEntity
  8
0
  6
CONTINUOUS
 62
     7
100
AcDbLine
 10
157.033333
 20
100.438946
 30
0.0
 11
164.7
 21
100.438946
 31
0.0
  0
LINE
  5
494
100
AcDbEntity
  8
0
  6
CONTINUOUS
 62
     7
100
AcDbLine
 10
167.0
 20
100.438946
 30
0.0
 11
177.733333
 21
100.438946
 31
0.0
  0
LINE
  5
495
100
AcDbEntity
  8
0
  6
CONTINUOUS
 62
     7
100
AcDbLine
 10
180.033333
 20
100.438946
 30
0.0
 11
189.233333
 21
100.438946
 31
0.0
  0
LINE
  5
496
100
AcDbEntity
  8
0
  6
CONTINUOUS
 62
     7
100
AcDbLine
 10
191.533333
 20
100.438946
 30
0.0
 11
201.5
 21
100.438946
 31
0.0
  0
LINE
  5
497
100
AcDbEntity
  8
0
  6
CONTINUOUS
 62
     7
100
AcDbLine
 10
157.033333
 20
94.757823
 30
0.0
 11
164.7
 21
94.757823
 31
0.0
  0
LINE
  5
498
100
AcDbEntity
  8
0
  6
CONTINUOUS
 62
     7
100
AcDbLine
 10
167.0
 20
94.757823
 30
0.0
 11
177.733333
 21
94.757823
 31
0.0
  0
LINE
  5
499
100
AcDbEntity
  8
0
  6
CONTINUOUS
 62
     7
100
AcDbLine
 10
180.033333
 20
94.757823
 30
0.0
 11
189.233333
 21
94.757823
 31
0.0
  0
LINE
  5
49A
100
AcDbEntity
  8
0
  6
CONTINUOUS
 62
     7
100
AcDbLine
 10
191.533333
 20
94.757823
 30
0.0
 11
201.5
 21
94.757823
 31
0.0
  0
LINE
  5
49B
100
AcDbEntity
  8
0
  6
CONTINUOUS
 62
     7
100
AcDbLine
 10
157.033333
 20
83.395577
 30
0.0
 11
164.7
 21
83.395577
 31
0.0
  0
LINE
  5
49C
100
AcDbEntity
  8
0
  6
CONTINUOUS
 62
     7
100
AcDbLine
 10
167.0
 20
89.0767
 30
0.0
 11
177.733333
 21
89.0767
 31
0.0
  0
LINE
  5
49D
100
AcDbEntity
  8
0
  6
CONTINUOUS
 62
     7
100
AcDbLine
 10
180.033333
 20
89.0767
 30
0.0
 11
189.233333
 21
89.0767
 31
0.0
  0
LINE
  5
49E
100
AcDbEntity
  8
0
  6
CONTINUOUS
 62
     7
100
AcDbLine
 10
191.533333
 20
89.0767
 30
0.0
 11
201.5
 21
89.0767
 31
0.0
  0
LINE
  5
49F
100
AcDbEntity
  8
0
  6
CONTINUOUS
 62
     7
100
AcDbLine
 10
157.033333
 20
89.0767
 30
0.0
 11
164.7
 21
89.0767
 31
0.0
  0
LINE
  5
4A0
100
AcDbEntity
  8
0
  6
CONTINUOUS
 62
     7
100
AcDbLine
 10
167.0
 20
83.395577
 30
0.0
 11
177.733333
 21
83.395577
 31
0.0
  0
LINE
  5
4A1
100
AcDbEntity
  8
0
  6
CONTINUOUS
 62
     7
100
AcDbLine
 10
180.033333
 20
83.395577
 30
0.0
 11
189.233333
 21
83.395577
 31
0.0
  0
LINE
  5
4A2
100
AcDbEntity
  8
0
  6
CONTINUOUS
 62
     7
100
AcDbLine
 10
191.533333
 20
83.395577
 30
0.0
 11
201.5
 21
83.395577
 31
0.0
  0
LINE
  5
4A3
100
AcDbEntity
  8
0
  6
CONTINUOUS
 62
     7
100
AcDbLine
 10
157.033333
 20
77.714453
 30
0.0
 11
164.7
 21
77.714453
 31
0.0
  0
LINE
  5
4A4
100
AcDbEntity
  8
0
  6
CONTINUOUS
 62
     7
100
AcDbLine
 10
167.0
 20
77.714453
 30
0.0
 11
177.733333
 21
77.714453
 31
0.0
  0
LINE
  5
4A5
100
AcDbEntity
  8
0
  6
CONTINUOUS
 62
     7
100
AcDbLine
 10
180.033333
 20
77.714453
 30
0.0
 11
189.233333
 21
77.714453
 31
0.0
  0
LINE
  5
4A6
100
AcDbEntity
  8
0
  6
CONTINUOUS
 62
     7
100
AcDbLine
 10
191.533333
 20
77.714453
 30
0.0
 11
201.5
 21
77.714453
 31
0.0
  0
LINE
  5
4A7
100
AcDbEntity
  8
0
  6
CONTINUOUS
 62
     7
100
AcDbLine
 10
157.033333
 20
72.03333
 30
0.0
 11
164.7
 21
72.03333
 31
0.0
  0
LINE
  5
4A8
100
AcDbEntity
  8
0
  6
CONTINUOUS
 62
     7
100
AcDbLine
 10
167.0
 20
72.03333
 30
0.0
 11
177.733333
 21
72.03333
 31
0.0
  0
LINE
  5
4A9
100
AcDbEntity
  8
0
  6
CONTINUOUS
 62
     7
100
AcDbLine
 10
180.033333
 20
72.03333
 30
0.0
 11
189.233333
 21
72.03333
 31
0.0
  0
LINE
  5
4AA
100
AcDbEntity
  8
0
  6
CONTINUOUS
 62
     7
100
AcDbLine
 10
191.533333
 20
72.03333
 30
0.0
 11
201.5
 21
72.03333
 31
0.0
  0
LINE
  5
4AB
100
AcDbEntity
  8
0
  6
CONTINUOUS
 62
     7
100
AcDbLine
 10
172.543211
 20
16.354946
 30
0.0
 11
190.0
 21
16.354946
 31
0.0
  0
LINE
  5
4AC
100
AcDbEntity
  8
0
  6
CONTINUOUS
 62
     7
100
AcDbLine
 10
170.285985
 20
21.542059
 30
0.0
 11
190.0
 21
21.542059
 31
0.0
  0
LINE
  5
4AD
100
AcDbEntity
  8
0
  6
CONTINUOUS
 62
     7
100
AcDbLine
 10
168.620195
 20
26.729172
 30
0.0
 11
190.0
 21
26.729172
 31
0.0
  0
ENDBLK
  5
4AE
100
AcDbEntity
  8
0
100
AcDbBlockEnd
  0
BLOCK
  5
4B0
100
AcDbEntity
  8
0
100
AcDbBlockBegin
  2
ZONEN_-_8
 70
     0
 10
0.0
 20
0.0
 30
0.0
  3
ZONEN_-_8
  1

  0
LWPOLYLINE
  5
4B1
100
AcDbEntity
  8
0
  6
CONTINUOUS
 62
     6
100
AcDbPolyline
 90
        4
 70
     1
 10
5.0
 20
5.0
 10
95.0
 20
5.0
 10
95.0
 20
95.0
 10
5.0
 20
95.0
  0
LINE
  5
4B2
100
AcDbEntity
  8
0
  6
CONTINUOUS
 62
     7
100
AcDbLine
 10
20.0
 20
90.0
 30
0.0
 11
20.0
 21
95.0
 31
0.0
  0
LINE
  5
4B3
100
AcDbEntity
  8
0
  6
CONTINUOUS
 62
     7
100
AcDbLine
 10
30.0
 20
90.0
 30
0.0
 11
30.0
 21
95.0
 31
0.0
  0
LINE
  5
4B4
100
AcDbEntity
  8
0
  6
CONTINUOUS
 62
     7
100
AcDbLine
 10
40.0
 20
90.0
 30
0.0
 11
40.0
 21
95.0
 31
0.0
  0
LINE
  5
4B5
100
AcDbEntity
  8
0
  6
CONTINUOUS
 62
     7
100
AcDbLine
 10
50.0
 20
90.0
 30
0.0
 11
50.0
 21
95.0
 31
0.0
  0
LINE
  5
4B6
100
AcDbEntity
  8
0
  6
CONTINUOUS
 62
     7
100
AcDbLine
 10
60.0
 20
90.0
 30
0.0
 11
60.0
 21
95.0
 31
0.0
  0
LINE
  5
4B7
100
AcDbEntity
  8
0
  6
CONTINUOUS
 62
     7
100
AcDbLine
 10
70.0
 20
90.0
 30
0.0
 11
70.0
 21
95.0
 31
0.0
  0
LINE
  5
4B8
100
AcDbEntity
  8
0
  6
CONTINUOUS
 62
     7
100
AcDbLine
 10
80.0
 20
90.0
 30
0.0
 11
80.0
 21
95.0
 31
0.0
  0
LINE
  5
4B9
100
AcDbEntity
  8
0
  6
CONTINUOUS
 62
     7
100
AcDbLine
 10
20.0
 20
10.0
 30
0.0
 11
20.0
 21
5.0
 31
0.0
  0
LINE
  5
4BA
100
AcDbEntity
  8
0
  6
CONTINUOUS
 62
     7
100
AcDbLine
 10
30.0
 20
10.0
 30
0.0
 11
30.0
 21
5.0
 31
0.0
  0
LINE
  5
4BB
100
AcDbEntity
  8
0
  6
CONTINUOUS
 62
     7
100
AcDbLine
 10
40.0
 20
10.0
 30
0.0
 11
40.0
 21
5.0
 31
0.0
  0
LINE
  5
4BC
100
AcDbEntity
  8
0
  6
CONTINUOUS
 62
     7
100
AcDbLine
 10
50.0
 20
10.0
 30
0.0
 11
50.0
 21
5.0
 31
0.0
  0
LINE
  5
4BD
100
AcDbEntity
  8
0
  6
CONTINUOUS
 62
     7
100
AcDbLine
 10
60.0
 20
10.0
 30
0.0
 11
60.0
 21
5.0
 31
0.0
  0
LINE
  5
4BE
100
AcDbEntity
  8
0
  6
CONTINUOUS
 62
     7
100
AcDbLine
 10
70.0
 20
10.0
 30
0.0
 11
70.0
 21
5.0
 31
0.0
  0
LINE
  5
4BF
100
AcDbEntity
  8
0
  6
CONTINUOUS
 62
     7
100
AcDbLine
 10
80.0
 20
10.0
 30
0.0
 11
80.0
 21
5.0
 31
0.0
  0
LINE
  5
4C0
100
AcDbEntity
  8
0
  6
CONTINUOUS
 62
     7
100
AcDbLine
 10
10.0
 20
80.0
 30
0.0
 11
5.0
 21
80.0
 31
0.0
  0
LINE
  5
4C1
100
AcDbEntity
  8
0
  6
CONTINUOUS
 62
     7
100
AcDbLine
 10
10.0
 20
70.0
 30
0.0
 11
5.0
 21
70.0
 31
0.0
  0
LINE
  5
4C2
100
AcDbEntity
  8
0
  6
CONTINUOUS
 62
     7
100
AcDbLine
 10
10.0
 20
60.0
 30
0.0
 11
5.0
 21
60.0
 31
0.0
  0
LINE
  5
4C3
100
AcDbEntity
  8
0
  6
CONTINUOUS
 62
     7
100
AcDbLine
 10
10.0
 20
50.0
 30
0.0
 11
5.0
 21
50.0
 31
0.0
  0
LINE
  5
4C4
100
AcDbEntity
  8
0
  6
CONTINUOUS
 62
     7
100
AcDbLine
 10
10.0
 20
40.0
 30
0.0
 11
5.0
 21
40.0
 31
0.0
  0
LINE
  5
4C5
100
AcDbEntity
  8
0
  6
CONTINUOUS
 62
     7
100
AcDbLine
 10
10.0
 20
30.0
 30
0.0
 11
5.0
 21
30.0
 31
0.0
  0
LINE
  5
4C6
100
AcDbEntity
  8
0
  6
CONTINUOUS
 62
     7
100
AcDbLine
 10
10.0
 20
20.0
 30
0.0
 11
5.0
 21
20.0
 31
0.0
  0
LINE
  5
4C7
100
AcDbEntity
  8
0
  6
CONTINUOUS
 62
     7
100
AcDbLine
 10
90.0
 20
80.0
 30
0.0
 11
95.0
 21
80.0
 31
0.0
  0
LINE
  5
4C8
100
AcDbEntity
  8
0
  6
CONTINUOUS
 62
     7
100
AcDbLine
 10
90.0
 20
70.0
 30
0.0
 11
95.0
 21
70.0
 31
0.0
  0
LINE
  5
4C9
100
AcDbEntity
  8
0
  6
CONTINUOUS
 62
     7
100
AcDbLine
 10
90.0
 20
60.0
 30
0.0
 11
95.0
 21
60.0
 31
0.0
  0
LINE
  5
4CA
100
AcDbEntity
  8
0
  6
CONTINUOUS
 62
     7
100
AcDbLine
 10
90.0
 20
50.0
 30
0.0
 11
95.0
 21
50.0
 31
0.0
  0
LINE
  5
4CB
100
AcDbEntity
  8
0
  6
CONTINUOUS
 62
     7
100
AcDbLine
 10
90.0
 20
40.0
 30
0.0
 11
95.0
 21
40.0
 31
0.0
  0
LINE
  5
4CC
100
AcDbEntity
  8
0
  6
CONTINUOUS
 62
     7
100
AcDbLine
 10
90.0
 20
30.0
 30
0.0
 11
95.0
 21
30.0
 31
0.0
  0
LINE
  5
4CD
102
{ACAD_REACTORS
330
5A6
102
}
100
AcDbEntity
  8
0
  6
CONTINUOUS
 62
     7
100
AcDbLine
 10
90.0
 20
20.0
 30
0.0
 11
95.0
 21
20.0
 31
0.0
  0
LWPOLYLINE
  5
4CE
100
AcDbEntity
  8
0
  6
CONTINUOUS
 62
     7
100
AcDbPolyline
 90
        4
 70
     1
 10
10.0
 20
90.0
 10
10.0
 20
10.0
 10
90.0
 20
10.0
 10
90.0
 20
90.0
  0
MTEXT
  5
4CF
100
AcDbEntity
  8
0
100
AcDbMText
 10
92.5
 20
91.061905
 30
0.0
 40
3.082006
 41
5.0
 71
     2
 72
     5
  1
\C7;\fArial|b0|i0|;\H3.0820059355348;H\PG\PF\PE\PD\PC\PB\PA\P
  0
MTEXT
  5
4D0
100
AcDbEntity
  8
0
100
AcDbMText
 10
5.0
 20
7.5
 30
0.0
 40
3.082006
 41
90.0
 71
     4
 72
     5
  1
\C7;\fArial|b0|i0|;\H3.0820059355348;87654321
  0
MTEXT
  5
4D1
100
AcDbEntity
  8
0
100
AcDbMText
 10
7.5
 20
91.061905
 30
0.0
 40
3.082006
 41
5.0
 71
     2
 72
     5
  1
\C7;\fArial|b0|i0|;\H3.0820059355348;H\PG\PF\PE\PD\PC\PB\PA\P
  0
MTEXT
  5
4D2
100
AcDbEntity
  8
0
100
AcDbMText
 10
5.0
 20
92.5
 30
0.0
 40
3.082006
 41
90.0
 71
     4
 72
     5
  1
\C7;\fArial|b0|i0|;\H3.0820059355348;87654321
  0
ENDBLK
  5
4D3
100
AcDbEntity
  8
0
100
AcDbBlockEnd
  0
BLOCK
  5
4D5
100
AcDbEntity
  8
0
100
AcDbBlockBegin
  2
SPALTE_5_ZEILEN
 70
     0
 10
0.0
 20
0.0
 30
0.0
  3
SPALTE_5_ZEILEN
  1

  0
LWPOLYLINE
  5
4D6
102
{ACAD_REACTORS
330
5A6
102
}
100
AcDbEntity
  8
0
  6
CONTINUOUS
 62
     7
100
AcDbPolyline
 90
        4
 70
     1
 10
32.5
 20
37.5
 10
67.5
 20
37.5
 10
67.5
 20
62.5
 10
32.5
 20
62.5
  0
LINE
  5
4D7
100
AcDbEntity
  8
0
  6
CONTINUOUS
 62
     7
100
AcDbLine
 10
32.5
 20
57.5
 30
0.0
 11
67.5
 21
57.5
 31
0.0
  0
LINE
  5
4D8
100
AcDbEntity
  8
0
  6
CONTINUOUS
 62
     7
100
AcDbLine
 10
32.5
 20
52.5
 30
0.0
 11
67.5
 21
52.5
 31
0.0
  0
LINE
  5
4D9
100
AcDbEntity
  8
0
  6
CONTINUOUS
 62
     7
100
AcDbLine
 10
32.5
 20
47.5
 30
0.0
 11
67.5
 21
47.5
 31
0.0
  0
LINE
  5
4DA
100
AcDbEntity
  8
0
  6
CONTINUOUS
 62
     7
100
AcDbLine
 10
32.5
 20
42.5
 30
0.0
 11
67.5
 21
42.5
 31
0.0
  0
MTEXT
  5
4DB
100
AcDbEntity
  8
0
100
AcDbMText
 10
33.911111
 20
62.5
 30
0.0
 40
2.054647
 41
35.0
 71
     1
 72
     5
  1
\C7;\fArial|b0|i0|;\H2.0546471100301;W\U+00E4hlen und Text \Peingeben. Zeilenabstand \Pmit Kontrollpunkt \Panpassen.
  0
ENDBLK
  5
4DC
100
AcDbEntity
  8
0
100
AcDbBlockEnd
  0
BLOCK
  5
4DE
100
AcDbEntity
  8
0
100
AcDbBlockBegin
  2
FORTSETZUNGSBLATT_KLEIN
 70
     0
 10
0.0
 20
0.0
 30
0.0
  3
FORTSETZUNGSBLATT_KLEIN
  1

  0
LWPOLYLINE
  5
4DF
102
{ACAD_REACTORS
330
5A6
102
}
100
AcDbEntity
  8
0
  6
CONTINUOUS
 62
     7
100
AcDbPolyline
 90
        4
 70
     1
 10
20.0
 20
47.5
 10
71.612903
 20
47.5
 10
71.612903
 20
62.5
 10
20.0
 20
62.5
  0
LINE
  5
4E0
102
{ACAD_REACTORS
330
5A6
102
}
100
AcDbEntity
  8
0
  6
CONTINUOUS
 62
     7
100
AcDbLine
 10
71.616
 20
48.5
 30
0.0
 11
71.616
 21
52.5
 31
0.0
  0
LINE
  5
4E1
102
{ACAD_REACTORS
330
5A6
102
}
100
AcDbEntity
  8
0
  6
CONTINUOUS
 62
     7
100
AcDbLine
 10
71.616
 20
52.5
 30
0.0
 11
84.992
 21
52.5
 31
0.0
  0
LINE
  5
4E2
102
{ACAD_REACTORS
330
5A6
102
}
100
AcDbEntity
  8
0
  6
CONTINUOUS
 62
     7
100
AcDbLine
 10
84.992
 20
52.5
 30
0.0
 11
84.992
 21
48.5
 31
0.0
  0
MTEXT
  5
4E3
100
AcDbEntity
  8
0
100
AcDbMText
 10
78.304
 20
50.5
 30
0.0
 40
2.054647
 41
13.376
 71
     5
 72
     5
  1
\C7;\fArial|b0|i0|;\H2.0546471100301;GR\U+00D6S.
  0
LINE
  5
4E4
102
{ACAD_REACTORS
330
5A6
102
}
100
AcDbEntity
  8
0
  6
CONTINUOUS
 62
     7
100
AcDbLine
 10
84.992
 20
48.5
 30
0.0
 11
84.992
 21
52.5
 31
0.0
  0
LINE
  5
4E5
102
{ACAD_REACTORS
330
5A6
102
}
100
AcDbEntity
  8
0
  6
CONTINUOUS
 62
     7
100
AcDbLine
 10
84.992
 20
52.5
 30
0.0
 11
112.0
 21
52.5
 31
0.0
  0
LINE
  5
4E6
102
{ACAD_REACTORS
330
5A6
102
}
100
AcDbEntity
  8
0
  6
CONTINUOUS
 62
     7
100
AcDbLine
 10
112.0
 20
52.5
 30
0.0
 11
112.0
 21
48.5
 31
0.0
  0
MTEXT
  5
4E7
100
AcDbEntity
  8
0
100
AcDbMText
 10
98.496
 20
50.5
 30
0.0
 40
2.054647
 41
27.008
 71
     5
 72
     5
  1
\C7;\fArial|b0|i0|;\H2.0546471100301;FAX-NR.
  0
LINE
  5
4E8
102
{ACAD_REACTORS
330
5A6
102
}
100
AcDbEntity
  8
0
  6
CONTINUOUS
 62
     7
100
AcDbLine
 10
112.0
 20
48.5
 30
0.0
 11
112.0
 21
52.5
 31
0.0
  0
LINE
  5
4E9
102
{ACAD_REACTORS
330
5A6
102
}
100
AcDbEntity
  8
0
  6
CONTINUOUS
 62
     7
100
AcDbLine
 10
112.0
 20
52.5
 30
0.0
 11
167.008
 21
52.5
 31
0.0
  0
LINE
  5
4EA
102
{ACAD_REACTORS
330
5A6
102
}
100
AcDbEntity
  8
0
  6
CONTINUOUS
 62
     7
100
AcDbLine
 10
167.008
 20
52.5
 30
0.0
 11
167.008
 21
48.5
 31
0.0
  0
MTEXT
  5
4EB
100
AcDbEntity
  8
0
100
AcDbMText
 10
139.504
 20
50.5
 30
0.0
 40
2.054647
 41
55.008
 71
     5
 72
     5
  1
\C7;\fArial|b0|i0|;\H2.0546471100301;ZEICHN.NR.
  0
LINE
  5
4EC
102
{ACAD_REACTORS
330
5A6
102
}
100
AcDbEntity
  8
0
  6
CONTINUOUS
 62
     7
100
AcDbLine
 10
167.008
 20
48.5
 30
0.0
 11
167.008
 21
52.5
 31
0.0
  0
LINE
  5
4ED
102
{ACAD_REACTORS
330
5A6
102
}
100
AcDbEntity
  8
0
  6
CONTINUOUS
 62
     7
100
AcDbLine
 10
167.008
 20
52.5
 30
0.0
 11
180.0
 21
52.5
 31
0.0
  0
LINE
  5
4EE
102
{ACAD_REACTORS
330
5A6
102
}
100
AcDbEntity
  8
0
  6
CONTINUOUS
 62
     7
100
AcDbLine
 10
180.0
 20
52.5
 30
0.0
 11
180.0
 21
48.5
 31
0.0
  0
MTEXT
  5
4EF
100
AcDbEntity
  8
0
100
AcDbMText
 10
173.504
 20
50.5
 30
0.0
 40
2.054647
 41
12.992
 71
     5
 72
     5
  1
\C7;\fArial|b0|i0|;\H2.0546471100301;REV.
  0
LINE
  5
4F0
102
{ACAD_REACTORS
330
5A6
102
}
100
AcDbEntity
  8
0
  6
CONTINUOUS
 62
     7
100
AcDbLine
 10
35.0
 20
47.5
 30
0.0
 11
20.0
 21
47.5
 31
0.0
  0
LINE
  5
4F1
102
{ACAD_REACTORS
330
5A6
102
}
100
AcDbEntity
  8
0
  6
CONTINUOUS
 62
     7
100
AcDbLine
 10
20.0
 20
47.5
 30
0.0
 11
20.0
 21
42.5
 31
0.0
  0
LINE
  5
4F2
102
{ACAD_REACTORS
330
5A6
102
}
100
AcDbEntity
  8
0
  6
CONTINUOUS
 62
     7
100
AcDbLine
 10
20.0
 20
42.5
 30
0.0
 11
35.0
 21
42.5
 31
0.0
  0
MTEXT
  5
4F3
100
AcDbEntity
  8
0
100
AcDbMText
 10
27.5
 20
45.0
 30
0.0
 40
2.054647
 41
15.0
 71
     5
 72
     5
  1
\C7;\fArial|b0|i0|;\H2.0546471100301;ERSTEL.
  0
LINE
  5
4F4
102
{ACAD_REACTORS
330
5A6
102
}
100
AcDbEntity
  8
0
  6
CONTINUOUS
 62
     7
100
AcDbLine
 10
35.0
 20
47.5
 30
0.0
 11
71.612903
 21
47.5
 31
0.0
  0
LINE
  5
4F5
102
{ACAD_REACTORS
330
5A6
102
}
100
AcDbEntity
  8
0
  6
CONTINUOUS
 62
     7
100
AcDbLine
 10
71.612903
 20
47.5
 30
0.0
 11
71.612903
 21
42.5
 31
0.0
  0
LINE
  5
4F6
102
{ACAD_REACTORS
330
5A6
102
}
100
AcDbEntity
  8
0
  6
CONTINUOUS
 62
     7
100
AcDbLine
 10
71.612903
 20
42.5
 30
0.0
 11
35.0
 21
42.5
 31
0.0
  0
MTEXT
  5
4F7
100
AcDbEntity
  8
0
100
AcDbMText
 10
53.306452
 20
45.0
 30
0.0
 40
2.054647
 41
36.612903
 71
     5
 72
     5
  1
\C7;\fArial|b0|i0|;\H2.0546471100301;ADMINISTRATOR
  0
LINE
  5
4F8
102
{ACAD_REACTORS
330
5A6
102
}
100
AcDbEntity
  8
0
  6
CONTINUOUS
 62
     7
100
AcDbLine
 10
71.616
 20
48.5
 30
0.0
 11
71.616
 21
42.5
 31
0.0
  0
LINE
  5
4F9
102
{ACAD_REACTORS
330
5A6
102
}
100
AcDbEntity
  8
0
  6
CONTINUOUS
 62
     7
100
AcDbLine
 10
71.616
 20
42.5
 30
0.0
 11
84.992
 21
42.5
 31
0.0
  0
LINE
  5
4FA
102
{ACAD_REACTORS
330
5A6
102
}
100
AcDbEntity
  8
0
  6
CONTINUOUS
 62
     7
100
AcDbLine
 10
84.992
 20
42.5
 30
0.0
 11
84.992
 21
48.5
 31
0.0
  0
LINE
  5
4FB
102
{ACAD_REACTORS
330
5A6
102
}
100
AcDbEntity
  8
0
  6
CONTINUOUS
 62
     7
100
AcDbLine
 10
84.992
 20
48.5
 30
0.0
 11
84.992
 21
42.5
 31
0.0
  0
LINE
  5
4FC
102
{ACAD_REACTORS
330
5A6
102
}
100
AcDbEntity
  8
0
  6
CONTINUOUS
 62
     7
100
AcDbLine
 10
84.992
 20
42.5
 30
0.0
 11
112.0
 21
42.5
 31
0.0
  0
LINE
  5
4FD
102
{ACAD_REACTORS
330
5A6
102
}
100
AcDbEntity
  8
0
  6
CONTINUOUS
 62
     7
100
AcDbLine
 10
112.0
 20
42.5
 30
0.0
 11
112.0
 21
48.5
 31
0.0
  0
LINE
  5
4FE
102
{ACAD_REACTORS
330
5A6
102
}
100
AcDbEntity
  8
0
  6
CONTINUOUS
 62
     7
100
AcDbLine
 10
112.0
 20
48.5
 30
0.0
 11
112.0
 21
42.5
 31
0.0
  0
LINE
  5
4FF
102
{ACAD_REACTORS
330
5A6
102
}
100
AcDbEntity
  8
0
  6
CONTINUOUS
 62
     7
100
AcDbLine
 10
112.0
 20
42.5
 30
0.0
 11
167.008
 21
42.5
 31
0.0
  0
LINE
  5
500
102
{ACAD_REACTORS
330
5A6
102
}
100
AcDbEntity
  8
0
  6
CONTINUOUS
 62
     7
100
AcDbLine
 10
167.008
 20
42.5
 30
0.0
 11
167.008
 21
48.5
 31
0.0
  0
LINE
  5
501
102
{ACAD_REACTORS
330
5A6
102
}
100
AcDbEntity
  8
0
  6
CONTINUOUS
 62
     7
100
AcDbLine
 10
167.008
 20
48.5
 30
0.0
 11
167.008
 21
42.5
 31
0.0
  0
LINE
  5
502
102
{ACAD_REACTORS
330
5A6
102
}
100
AcDbEntity
  8
0
  6
CONTINUOUS
 62
     7
100
AcDbLine
 10
167.008
 20
42.5
 30
0.0
 11
180.0
 21
42.5
 31
0.0
  0
LINE
  5
503
102
{ACAD_REACTORS
330
5A6
102
}
100
AcDbEntity
  8
0
  6
CONTINUOUS
 62
     7
100
AcDbLine
 10
180.0
 20
42.5
 30
0.0
 11
180.0
 21
48.5
 31
0.0
  0
LINE
  5
504
102
{ACAD_REACTORS
330
5A6
102
}
100
AcDbEntity
  8
0
  6
CONTINUOUS
 62
     7
100
AcDbLine
 10
37.824
 20
42.5
 30
0.0
 11
20.0
 21
42.5
 31
0.0
  0
LINE
  5
505
102
{ACAD_REACTORS
330
5A6
102
}
100
AcDbEntity
  8
0
  6
CONTINUOUS
 62
     7
100
AcDbLine
 10
20.0
 20
42.5
 30
0.0
 11
20.0
 21
37.5
 31
0.0
  0
LINE
  5
506
102
{ACAD_REACTORS
330
5A6
102
}
100
AcDbEntity
  8
0
  6
CONTINUOUS
 62
     7
100
AcDbLine
 10
20.0
 20
37.5
 30
0.0
 11
37.824
 21
37.5
 31
0.0
  0
MTEXT
  5
507
100
AcDbEntity
  8
0
100
AcDbMText
 10
28.912
 20
40.0
 30
0.0
 40
2.054647
 41
17.824
 71
     5
 72
     5
  1
\C7;\fArial|b0|i0|;\H2.0546471100301;AUSGEG.
  0
LINE
  5
508
102
{ACAD_REACTORS
330
5A6
102
}
100
AcDbEntity
  8
0
  6
CONTINUOUS
 62
     7
100
AcDbLine
 10
37.792
 20
42.5
 30
0.0
 11
71.616
 21
42.5
 31
0.0
  0
LINE
  5
509
102
{ACAD_REACTORS
330
5A6
102
}
100
AcDbEntity
  8
0
  6
CONTINUOUS
 62
     7
100
AcDbLine
 10
71.616
 20
42.5
 30
0.0
 11
71.616
 21
37.5
 31
0.0
  0
LINE
  5
50A
102
{ACAD_REACTORS
330
5A6
102
}
100
AcDbEntity
  8
0
  6
CONTINUOUS
 62
     7
100
AcDbLine
 10
71.616
 20
37.5
 30
0.0
 11
37.792
 21
37.5
 31
0.0
  0
LINE
  5
50B
102
{ACAD_REACTORS
330
5A6
102
}
100
AcDbEntity
  8
0
  6
CONTINUOUS
 62
     7
100
AcDbLine
 10
86.496
 20
42.5
 30
0.0
 11
71.616
 21
42.5
 31
0.0
  0
LINE
  5
50C
102
{ACAD_REACTORS
330
5A6
102
}
100
AcDbEntity
  8
0
  6
CONTINUOUS
 62
     7
100
AcDbLine
 10
71.616
 20
42.5
 30
0.0
 11
71.616
 21
37.5
 31
0.0
  0
LINE
  5
50D
102
{ACAD_REACTORS
330
5A6
102
}
100
AcDbEntity
  8
0
  6
CONTINUOUS
 62
     7
100
AcDbLine
 10
71.616
 20
37.5
 30
0.0
 11
86.496
 21
37.5
 31
0.0
  0
MTEXT
  5
50E
100
AcDbEntity
  8
0
100
AcDbMText
 10
79.056
 20
40.0
 30
0.0
 40
2.054647
 41
14.88
 71
     5
 72
     5
  1
\C7;\fArial|b0|i0|;\H2.0546471100301;MASST.
  0
LINE
  5
50F
102
{ACAD_REACTORS
330
5A6
102
}
100
AcDbEntity
  8
0
  6
CONTINUOUS
 62
     7
100
AcDbLine
 10
86.496
 20
37.5
 30
0.0
 11
104.64
 21
37.5
 31
0.0
  0
LINE
  5
510
102
{ACAD_REACTORS
330
5A6
102
}
100
AcDbEntity
  8
0
  6
CONTINUOUS
 62
     7
100
AcDbLine
 10
104.64
 20
37.5
 30
0.0
 11
104.64
 21
42.5
 31
0.0
  0
LINE
  5
511
102
{ACAD_REACTORS
330
5A6
102
}
100
AcDbEntity
  8
0
  6
CONTINUOUS
 62
     7
100
AcDbLine
 10
104.64
 20
42.5
 30
0.0
 11
86.496
 21
42.5
 31
0.0
  0
MTEXT
  5
512
100
AcDbEntity
  8
0
100
AcDbMText
 10
95.568
 20
40.0
 30
0.0
 40
2.054647
 41
18.144
 71
     5
 72
     5
  1
\C7;\fArial|b0|i0|;\H2.0546471100301;1:1
  0
LWPOLYLINE
  5
513
102
{ACAD_REACTORS
330
5A6
102
}
100
AcDbEntity
  8
0
  6
CONTINUOUS
 62
     7
100
AcDbPolyline
 90
        4
 70
     1
 10
104.645161
 20
37.5
 10
134.580645
 20
37.5
 10
134.580645
 20
42.5
 10
104.645161
 20
42.5
  0
LINE
  5
514
102
{ACAD_REACTORS
330
5A6
102
}
100
AcDbEntity
  8
0
  6
CONTINUOUS
 62
     7
100
AcDbLine
 10
145.935484
 20
42.5
 30
0.0
 11
134.580645
 21
42.5
 31
0.0
  0
LINE
  5
515
102
{ACAD_REACTORS
330
5A6
102
}
100
AcDbEntity
  8
0
  6
CONTINUOUS
 62
     7
100
AcDbLine
 10
134.580645
 20
42.5
 30
0.0
 11
134.580645
 21
37.5
 31
0.0
  0
LINE
  5
516
102
{ACAD_REACTORS
330
5A6
102
}
100
AcDbEntity
  8
0
  6
CONTINUOUS
 62
     7
100
AcDbLine
 10
134.580645
 20
37.5
 30
0.0
 11
145.935484
 21
37.5
 31
0.0
  0
MTEXT
  5
517
100
AcDbEntity
  8
0
100
AcDbMText
 10
140.258065
 20
40.0
 30
0.0
 40
2.054647
 41
11.354839
 71
     5
 72
     5
  1
\C7;\fArial|b0|i0|;\H2.0546471100301;BLATT
  0
LINE
  5
518
102
{ACAD_REACTORS
330
5A6
102
}
100
AcDbEntity
  8
0
  6
CONTINUOUS
 62
     7
100
AcDbLine
 10
145.935484
 20
42.5
 30
0.0
 11
180.0
 21
42.5
 31
0.0
  0
LINE
  5
519
102
{ACAD_REACTORS
330
5A6
102
}
100
AcDbEntity
  8
0
  6
CONTINUOUS
 62
     7
100
AcDbLine
 10
180.0
 20
42.5
 30
0.0
 11
180.0
 21
37.5
 31
0.0
  0
LINE
  5
51A
102
{ACAD_REACTORS
330
5A6
102
}
100
AcDbEntity
  8
0
  6
CONTINUOUS
 62
     7
100
AcDbLine
 10
180.0
 20
37.5
 30
0.0
 11
145.935484
 21
37.5
 31
0.0
  0
MTEXT
  5
51B
100
AcDbEntity
  8
0
100
AcDbMText
 10
162.967742
 20
40.0
 30
0.0
 40
2.054647
 41
34.064516
 71
     5
 72
     5
  1
\C7;\fArial|b0|i0|;\H2.0546471100301;3 VON 3
  0
ENDBLK
  5
51C
100
AcDbEntity
  8
0
100
AcDbBlockEnd
  0
BLOCK
  5
51E
100
AcDbEntity
  8
0
100
AcDbBlockBegin
  2
\U+00DCBERARBEITUNGSZONE_KLEIN
 70
     0
 10
0.0
 20
0.0
 30
0.0
  3
\U+00DCBERARBEITUNGSZONE_KLEIN
  1

  0
LWPOLYLINE
  5
51F
102
{ACAD_REACTORS
330
5A6
102
}
100
AcDbEntity
  8
0
  6
CONTINUOUS
 62
     7
100
AcDbPolyline
 90
        4
 70
     1
 10
30.0
 20
50.0
 10
170.0
 20
50.0
 10
170.0
 20
55.0
 10
30.0
 20
55.0
  0
MTEXT
  5
520
100
AcDbEntity
  8
0
100
AcDbMText
 10
100.0
 20
52.5
 30
0.0
 40
2.054647
 41
140.0
 71
     5
 72
     5
  1
\C7;\fArial|b0|i0|;\H2.0546471100301;REVISIONEN
  0
LWPOLYLINE
  5
521
102
{ACAD_REACTORS
330
5A6
102
}
100
AcDbEntity
  8
0
  6
CONTINUOUS
 62
     7
100
AcDbPolyline
 90
        4
 70
     1
 10
30.014
 20
45.0
 10
50.006
 20
45.0
 10
50.006
 20
50.0
 10
30.014
 20
50.0
  0
MTEXT
  5
522
100
AcDbEntity
  8
0
100
AcDbMText
 10
40.01
 20
47.5
 30
0.0
 40
2.054647
 41
19.992
 71
     5
 72
     5
  1
\C7;\fArial|b0|i0|;\H2.0546471100301;ZONE
  0
LWPOLYLINE
  5
523
102
{ACAD_REACTORS
330
5A6
102
}
100
AcDbEntity
  8
0
  6
CONTINUOUS
 62
     7
100
AcDbPolyline
 90
        4
 70
     1
 10
49.999
 20
45.0
 10
64.993
 20
45.0
 10
64.993
 20
50.0
 10
49.999
 20
50.0
  0
MTEXT
  5
524
100
AcDbEntity
  8
0
100
AcDbMText
 10
57.496
 20
47.5
 30
0.0
 40
2.054647
 41
14.994
 71
     5
 72
     5
  1
\C7;\fArial|b0|i0|;\H2.0546471100301;REV.
  0
LWPOLYLINE
  5
525
102
{ACAD_REACTORS
330
5A6
102
}
100
AcDbEntity
  8
0
  6
CONTINUOUS
 62
     7
100
AcDbPolyline
 90
        4
 70
     1
 10
64.993
 20
45.0
 10
119.999
 20
45.0
 10
119.999
 20
50.0
 10
64.993
 20
50.0
  0
MTEXT
  5
526
100
AcDbEntity
  8
0
100
AcDbMText
 10
92.496
 20
47.5
 30
0.0
 40
2.054647
 41
55.006
 71
     5
 72
     5
  1
\C7;\fArial|b0|i0|;\H2.0546471100301;BESCHREIBUNG
  0
LWPOLYLINE
  5
527
102
{ACAD_REACTORS
330
5A6
102
}
100
AcDbEntity
  8
0
  6
CONTINUOUS
 62
     7
100
AcDbPolyline
 90
        4
 70
     1
 10
119.999
 20
45.0
 10
141.993
 20
45.0
 10
141.993
 20
50.0
 10
119.999
 20
50.0
  0
MTEXT
  5
528
100
AcDbEntity
  8
0
100
AcDbMText
 10
130.996
 20
47.5
 30
0.0
 40
2.054647
 41
21.994
 71
     5
 72
     5
  1
\C7;\fArial|b0|i0|;\H2.0546471100301;DATUM
  0
LWPOLYLINE
  5
529
102
{ACAD_REACTORS
330
5A6
102
}
100
AcDbEntity
  8
0
  6
CONTINUOUS
 62
     7
100
AcDbPolyline
 90
        4
 70
     1
 10
142.0
 20
45.0
 10
170.0
 20
45.0
 10
170.0
 20
50.0
 10
142.0
 20
50.0
  0
MTEXT
  5
52A
100
AcDbEntity
  8
0
100
AcDbMText
 10
156.0
 20
47.5
 30
0.0
 40
2.054647
 41
28.0
 71
     5
 72
     5
  1
\C7;\fArial|b0|i0|;\H2.0546471100301;GENEHMIGT
  0
ENDBLK
  5
52B
100
AcDbEntity
  8
0
100
AcDbBlockEnd
  0
BLOCK
  5
52D
100
AcDbEntity
  8
0
100
AcDbBlockBegin
  2
MASTER_152
 70
     0
 10
0.0
 20
0.0
 30
0.0
  3
MASTER_152
  1

  0
LWPOLYLINE
  5
52E
102
{ACAD_REACTORS
330
5A6
102
}
100
AcDbEntity
  8
0
  6
CONTINUOUS
 62
     7
100
AcDbPolyline
 90
        2
 70
     1
 10
0.0
 20
20.0
 42
-1.0
 10
40.0
 20
20.0
 42
-1.0
  0
ENDBLK
  5
52F
100
AcDbEntity
  8
0
100
AcDbBlockEnd
  0
BLOCK
  5
531
100
AcDbEntity
  8
0
100
AcDbBlockBegin
  2
MASTER_153
 70
     0
 10
0.0
 20
0.0
 30
0.0
  3
MASTER_153
  1

  0
LWPOLYLINE
  5
532
102
{ACAD_REACTORS
330
5A6
102
}
100
AcDbEntity
  8
0
  6
CONTINUOUS
 62
     7
100
AcDbPolyline
 90
        4
 70
     1
 10
0.0
 20
0.0
 10
40.0
 20
0.0
 10
40.0
 20
30.0
 10
0.0
 20
30.0
  0
ENDBLK
  5
533
100
AcDbEntity
  8
0
100
AcDbBlockEnd
  0
BLOCK
  5
535
100
AcDbEntity
  8
0
100
AcDbBlockBegin
  2
MASTER_154
 70
     0
 10
0.0
 20
0.0
 30
0.0
  3
MASTER_154
  1

  0
LWPOLYLINE
  5
536
102
{ACAD_REACTORS
330
5A6
102
}
100
AcDbEntity
  8
0
  6
CONTINUOUS
 62
     7
100
AcDbPolyline
 90
        2
 70
     1
 10
0.0
 20
20.0
 42
-1.0
 10
40.0
 20
20.0
 42
-1.0
  0
ENDBLK
  5
537
100
AcDbEntity
  8
0
100
AcDbBlockEnd
  0
BLOCK
  5
539
100
AcDbEntity
  8
0
100
AcDbBlockBegin
  2
MASTER_155
 70
     0
 10
0.0
 20
0.0
 30
0.0
  3
MASTER_155
  1

  0
LINE
  5
53A
100
AcDbEntity
  8
0
  6
CONTINUOUS
 62
     7
100
AcDbLine
 10
4.850713
 20
32.10285
 30
0.0
 11
42.425356
 21
22.401425
 31
0.0
  0
LINE
  5
53B
100
AcDbEntity
  8
0
  6
CONTINUOUS
 62
     7
100
AcDbLine
 10
4.850713
 20
-6.70285
 30
0.0
 11
42.425356
 21
2.998575
 31
0.0
  0
LWPOLYLINE
  5
53C
102
{ACAD_REACTORS
330
5A6
102
}
100
AcDbEntity
  8
0
  6
CONTINUOUS
 62
     7
100
AcDbPolyline
 90
        2
 70
     1
 10
-20.0
 20
12.7
 42
1.0
 10
20.0
 20
12.7
 42
1.0
  0
LWPOLYLINE
  5
53D
102
{ACAD_REACTORS
330
5A6
102
}
100
AcDbEntity
  8
0
  6
CONTINUOUS
 62
     7
100
AcDbPolyline
 90
        2
 70
     1
 10
30.0
 20
12.7
 42
1.0
 10
50.0
 20
12.7
 42
1.0
  0
ENDBLK
  5
53E
100
AcDbEntity
  8
0
100
AcDbBlockEnd
  0
BLOCK
  5
540
100
AcDbEntity
  8
0
100
AcDbBlockBegin
  2
MASTER_156
 70
     0
 10
0.0
 20
0.0
 30
0.0
  3
MASTER_156
  1

  0
LWPOLYLINE
  5
541
102
{ACAD_REACTORS
330
5A6
102
}
100
AcDbEntity
  8
0
  6
CONTINUOUS
 62
     7
100
AcDbPolyline
 90
        3
 70
     1
 10
0.0
 20
2.5
 10
2.0
 20
2.5
 10
2.0
 20
0.05051
 42
2.805884
  0
CIRCLE
  5
542
102
{ACAD_REACTORS
330
5A6
102
}
100
AcDbEntity
  8
0
  6
CONTINUOUS
 62
     7
100
AcDbCircle
 10
2.5
 20
2.5
 30
0.0
 40
2.25
  0
CIRCLE
  5
543
102
{ACAD_REACTORS
330
5A6
102
}
100
AcDbEntity
  8
0
  6
CONTINUOUS
 62
     7
100
AcDbCircle
 10
2.5
 20
2.5
 30
0.0
 40
2.0
  0
ENDBLK
  5
544
100
AcDbEntity
  8
0
100
AcDbBlockEnd
  0
BLOCK
  5
546
100
AcDbEntity
  8
0
100
AcDbBlockBegin
  2
MASTER_157
 70
     0
 10
0.0
 20
0.0
 30
0.0
  3
MASTER_157
  1

  0
LWPOLYLINE
  5
547
102
{ACAD_REACTORS
330
5A6
102
}
100
AcDbEntity
  8
0
  6
CONTINUOUS
 62
     7
100
AcDbPolyline
 90
        4
 70
     1
 10
12.149667
 20
0.0
 42
0.159452
 10
13.3
 20
0.5
 42
0.264327
 10
12.7
 20
5.0
 10
12.149667
 20
5.0
  0
LWPOLYLINE
  5
548
102
{ACAD_REACTORS
330
5A6
102
}
100
AcDbEntity
  8
0
  6
CONTINUOUS
 62
     7
100
AcDbPolyline
 90
        4
 70
     1
 10
12.7
 20
5.0
 42
-0.264327
 10
12.1
 20
9.5
 42
-0.256074
 10
12.7
 20
10.0
 42
-0.256074
 10
13.3
 20
9.5
 42
-0.264327
  0
LWPOLYLINE
  5
549
100
AcDbEntity
  8
0
  6
CONTINUOUS
 62
     7
100
AcDbPolyline
 90
        3
 70
     0
 10
12.7
 20
0.0
 42
0.256074
 10
13.3
 20
0.5
 42
0.264327
 10
12.7
 20
5.0
  0
LWPOLYLINE
  5
54A
100
AcDbEntity
  8
0
  6
CONTINUOUS
 62
     7
100
AcDbPolyline
 90
        3
 70
     1
 10
12.7
 20
5.0
 42
-0.298511
 10
12.3
 20
9.0
 42
-0.5
 10
13.1
 20
9.0
 42
-0.298511
  0
ENDBLK
  5
54B
100
AcDbEntity
  8
0
100
AcDbBlockEnd
  0
BLOCK
  5
54D
100
AcDbEntity
  8
0
100
AcDbBlockBegin
  2
MASTER_158
 70
     0
 10
0.0
 20
0.0
 30
0.0
  3
MASTER_158
  1

  0
LWPOLYLINE
  5
54E
102
{ACAD_REACTORS
330
5A6
102
}
100
AcDbEntity
  8
0
  6
CONTINUOUS
 62
     7
100
AcDbPolyline
 90
        2
 70
     1
 10
-1.0
 20
0.0
 10
1.0
 20
0.0
  0
LWPOLYLINE
  5
54F
102
{ACAD_REACTORS
330
5A6
102
}
100
AcDbEntity
  8
0
  6
CONTINUOUS
 62
     7
100
AcDbPolyline
 90
        2
 70
     1
 10
0.0
 20
-1.0
 10
0.0
 20
1.0
  0
LWPOLYLINE
  5
550
100
AcDbEntity
  8
0
  6
CONTINUOUS
 62
     7
100
AcDbPolyline
 90
        3
 70
     0
 10
25.0
 20
20.0
 10
20.0
 20
20.0
 10
3.535534
 20
3.535534
  0
MTEXT
  5
551
100
AcDbEntity
  8
0
100
AcDbMText
 10
32.504634
 20
20.0
 30
0.0
 40
2.054647
 41
15.009269
 71
     5
 72
     5
  1
\C7;\fArial|b0|i0|;\H2.0546471100301;\U+00D810,00mm
  0
ENDBLK
  5
552
100
AcDbEntity
  8
0
100
AcDbBlockEnd
  0
BLOCK
  5
554
100
AcDbEntity
  8
0
100
AcDbBlockBegin
  2
MASTER_159
 70
     2
 10
0.0
 20
0.0
 30
0.0
  3
MASTER_159
  1

  0
ATTDEF
  5
555
100
AcDbEntity
  8
0
100
AcDbText
 10
12.7
 20
0.0
 30
0.0
 40
0.2
  1
0.00
100
AcDbAttributeDefinition
  3
Genauigkeit
  2
LPREC
 70
     0
  0
ATTDEF
  5
556
100
AcDbEntity
  8
0
100
AcDbText
 10
12.7
 20
0.0
 30
0.0
 40
0.2
  1
Zeichenblatteinheiten verwenden
100
AcDbAttributeDefinition
  3
Einheiten
  2
LUNITS
 70
     0
  0
ATTDEF
  5
557
100
AcDbEntity
  8
0
100
AcDbText
 10
12.7
 20
0.0
 30
0.0
 40
0.2
  1
Ma\U+00DFeinheiten anzeigen
100
AcDbAttributeDefinition
  3
Ma\U+00DFeinheitenanzeige
  2
SHOWUNITS
 70
     0
  0
ATTDEF
  5
558
100
AcDbEntity
  8
0
100
AcDbText
 10
12.7
 20
0.0
 30
0.0
 40
0.2
  1
Beide
100
AcDbAttributeDefinition
  3
Erweiterungslinien
  2
EXTENSIONS
 70
     0
  0
ATTDEF
  5
559
100
AcDbEntity
  8
0
100
AcDbText
 10
12.7
 20
0.0
 30
0.0
 40
0.2
  1
1.5707963267949
100
AcDbAttributeDefinition
  3
Winkel
  2
ANGLE
 70
     0
  0
LWPOLYLINE
  5
55A
102
{ACAD_REACTORS
330
5A6
102
}
100
AcDbEntity
  8
0
  6
CONTINUOUS
 62
     7
100
AcDbPolyline
 90
        2
 70
     1
 10
2.877778
 20
0.0
 10
11.288889
 20
0.0
  0
LWPOLYLINE
  5
55B
102
{ACAD_REACTORS
330
5A6
102
}
100
AcDbEntity
  8
0
  6
CONTINUOUS
 62
     7
100
AcDbPolyline
 90
        2
 70
     1
 10
2.877778
 20
10.0
 10
11.288889
 20
10.0
  0
LINE
  5
55C
100
AcDbEntity
  8
0
  6
CONTINUOUS
 62
     7
100
AcDbLine
 10
5.7
 20
-4.23164
 30
0.0
 11
5.7
 21
0.0
 31
0.0
  0
LINE
  5
55D
100
AcDbEntity
  8
0
  6
CONTINUOUS
 62
     7
100
AcDbLine
 10
5.7
 20
14.23164
 30
0.0
 11
5.7
 21
10.0
 31
0.0
  0
LWPOLYLINE
  5
55E
102
{ACAD_REACTORS
330
5A6
102
}
100
AcDbEntity
  8
0
  6
CONTINUOUS
 62
     7
100
AcDbPolyline
 90
        2
 70
     1
 10
5.7
 20
0.0
 10
5.7
 20
-10.638667
  0
MTEXT
  5
55F
100
AcDbEntity
  8
0
100
AcDbMText
 10
5.7
 20
-10.638667
 30
0.0
 40
2.054647
 41
12.814054
 71
     5
 72
     5
  1
\C7;\fArial|b0|i0|;\H2.0546471100301;10,00mm
 11
0.0
 21
1.0
 31
0.0
  0
ENDBLK
  5
560
100
AcDbEntity
  8
0
100
AcDbBlockEnd
  0
BLOCK
  5
562
100
AcDbEntity
  8
0
100
AcDbBlockBegin
  2
FLEX
 70
     2
 10
0.0
 20
0.0
 30
0.0
  3
FLEX
  1

  0
ATTDEF
  5
563
100
AcDbEntity
  8
0
100
AcDbText
 10
29.5
 20
12.7
 30
0.0
 40
0.2
  1
0.00
100
AcDbAttributeDefinition
  3
Genauigkeit
  2
LPREC
 70
     0
  0
ATTDEF
  5
564
100
AcDbEntity
  8
0
100
AcDbText
 10
29.5
 20
12.7
 30
0.0
 40
0.2
  1
 Einheiten des Zeichenblattes verwenden
100
AcDbAttributeDefinition
  3
Ma\U+00DFeinheiten
  2
LUNITS
 70
     0
  0
ATTDEF
  5
565
100
AcDbEntity
  8
0
100
AcDbText
 10
29.5
 20
12.7
 30
0.0
 40
0.2
  1
Ma\U+00DFeinheiten anzeigen
100
AcDbAttributeDefinition
  3
Ma\U+00DFeinheiten-Anzeige
  2
SHOWUNITS
 70
     0
  0
ATTDEF
  5
566
100
AcDbEntity
  8
0
100
AcDbText
 10
29.5
 20
12.7
 30
0.0
 40
0.2
  1
Beide
100
AcDbAttributeDefinition
  3
Erweiterungslinien
  2
EXTENSIONS
 70
     0
  0
LWPOLYLINE
  5
567
102
{ACAD_REACTORS
330
5A6
102
}
100
AcDbEntity
  8
0
  6
CONTINUOUS
 62
     7
100
AcDbPolyline
 90
        2
 70
     1
 10
29.5
 20
-7.416667
 10
29.5
 20
11.641667
  0
LWPOLYLINE
  5
568
102
{ACAD_REACTORS
330
5A6
102
}
100
AcDbEntity
  8
0
  6
CONTINUOUS
 62
     7
100
AcDbPolyline
 90
        2
 70
     1
 10
0.0
 20
-7.416667
 10
0.0
 20
11.641667
  0
LINE
  5
569
100
AcDbEntity
  8
0
  6
CONTINUOUS
 62
     7
100
AcDbLine
 10
14.75
 20
-5.3
 30
0.0
 11
29.5
 21
-5.3
 31
0.0
  0
LINE
  5
56A
100
AcDbEntity
  8
0
  6
CONTINUOUS
 62
     7
100
AcDbLine
 10
14.75
 20
-5.3
 30
0.0
 11
0.0
 21
-5.3
 31
0.0
  0
MTEXT
  5
56B
100
AcDbEntity
  8
0
100
AcDbMText
 10
7.5
 20
-3.500218
 30
0.0
 40
1.540968
 41
9.676842
 71
     5
 72
     5
  1
\C7;\fArial|b0|i0|;\H1.5409676972777;29,50mm
  0
ENDBLK
  5
56C
100
AcDbEntity
  8
0
100
AcDbBlockEnd
  0
BLOCK
  5
56E
100
AcDbEntity
  8
0
100
AcDbBlockBegin
  2
BOHRUNG2
 70
     2
 10
0.0
 20
0.0
 30
0.0
  3
BOHRUNG2
  1

  0
ATTDEF
  5
56F
100
AcDbEntity
  8
0
100
AcDbText
 10
16.5
 20
12.7
 30
0.0
 40
0.2
  1
0.00
100
AcDbAttributeDefinition
  3
Genauigkeit
  2
LPREC
 70
     0
  0
ATTDEF
  5
570
100
AcDbEntity
  8
0
100
AcDbText
 10
16.5
 20
12.7
 30
0.0
 40
0.2
  1
 Einheiten des Zeichenblattes verwenden
100
AcDbAttributeDefinition
  3
Ma\U+00DFeinheiten
  2
LUNITS
 70
     0
  0
ATTDEF
  5
571
100
AcDbEntity
  8
0
100
AcDbText
 10
16.5
 20
12.7
 30
0.0
 40
0.2
  1
Ma\U+00DFeinheiten anzeigen
100
AcDbAttributeDefinition
  3
Ma\U+00DFeinheiten-Anzeige
  2
SHOWUNITS
 70
     0
  0
ATTDEF
  5
572
100
AcDbEntity
  8
0
100
AcDbText
 10
16.5
 20
12.7
 30
0.0
 40
0.2
  1
Beide
100
AcDbAttributeDefinition
  3
Erweiterungslinien
  2
EXTENSIONS
 70
     0
  0
LWPOLYLINE
  5
573
102
{ACAD_REACTORS
330
5A6
102
}
100
AcDbEntity
  8
0
  6
CONTINUOUS
 62
     7
100
AcDbPolyline
 90
        2
 70
     1
 10
16.5
 20
-3.416667
 10
16.5
 20
11.641667
  0
LWPOLYLINE
  5
574
102
{ACAD_REACTORS
330
5A6
102
}
100
AcDbEntity
  8
0
  6
CONTINUOUS
 62
     7
100
AcDbPolyline
 90
        2
 70
     1
 10
0.0
 20
-3.416667
 10
0.0
 20
11.641667
  0
LINE
  5
575
100
AcDbEntity
  8
0
  6
CONTINUOUS
 62
     7
100
AcDbLine
 10
8.25
 20
-1.3
 30
0.0
 11
16.5
 21
-1.3
 31
0.0
  0
LINE
  5
576
100
AcDbEntity
  8
0
  6
CONTINUOUS
 62
     7
100
AcDbLine
 10
8.25
 20
-1.3
 30
0.0
 11
0.0
 21
-1.3
 31
0.0
  0
MTEXT
  5
577
100
AcDbEntity
  8
0
100
AcDbMText
 10
8.5
 20
0.499782
 30
0.0
 40
1.540968
 41
11.911299
 71
     5
 72
     5
  1
\C7;\fArial|b0|i0|;\H1.5409676972777;\U+00D8 16,50mm
  0
ENDBLK
  5
578
100
AcDbEntity
  8
0
100
AcDbBlockEnd
  0
BLOCK
  5
57A
100
AcDbEntity
  8
0
100
AcDbBlockBegin
  2
BOHRUNG
 70
     2
 10
0.0
 20
0.0
 30
0.0
  3
BOHRUNG
  1

  0
LWPOLYLINE
  5
57B
100
AcDbEntity
  8
0
  6
CONTINUOUS
 62
     7
100
AcDbPolyline
 90
        3
 70
     0
 10
33.0
 20
0.0
 10
17.595238
 20
0.0
 10
0.0
 20
33.0
  0
MTEXT
  5
57C
100
AcDbEntity
  8
0
100
AcDbMText
 10
-19.192734
 20
0.0
 30
0.0
 40
1.540968
 41
38.385469
 71
     5
 72
     5
  1
\C7;\fArial|b0|i0|;\H1.5409676972777;\U+00D8 6 (Bohrungen f\U+00FCr Geh\U+00E4useflansch)
  0
ENDBLK
  5
57D
100
AcDbEntity
  8
0
100
AcDbBlockEnd
  0
BLOCK
  5
57F
100
AcDbEntity
  8
0
100
AcDbBlockBegin
  2
MASTER_163
 70
     0
 10
0.0
 20
0.0
 30
0.0
  3
MASTER_163
  1

  0
LWPOLYLINE
  5
580
102
{ACAD_REACTORS
330
5A6
102
}
100
AcDbEntity
  8
0
  6
CONTINUOUS
 62
     7
100
AcDbPolyline
 90
        4
 70
     1
 10
2.028571
 20
8.25
 10
2.028571
 20
2.75
 10
5.028571
 20
0.0
 10
5.028571
 20
11.0
  0
LWPOLYLINE
  5
581
102
{ACAD_REACTORS
330
5A6
102
}
100
AcDbEntity
  8
0
  6
CONTINUOUS
 62
     7
100
AcDbPolyline
 90
        4
 70
     1
 10
0.0
 20
3.0
 10
2.0
 20
3.0
 10
2.0
 20
8.0
 10
0.0
 20
8.0
  0
ENDBLK
  5
582
100
AcDbEntity
  8
0
100
AcDbBlockEnd
  0
BLOCK
  5
584
100
AcDbEntity
  8
0
100
AcDbBlockBegin
  2
MASTER_164
 70
     0
 10
0.0
 20
0.0
 30
0.0
  3
MASTER_164
  1

  0
LWPOLYLINE
  5
585
100
AcDbEntity
  8
0
  6
CONTINUOUS
 62
     7
100
AcDbPolyline
 90
        3
 70
     0
 10
33.0
 20
0.0
 10
18.0
 20
0.0
 10
0.0
 20
33.0
  0
MTEXT
  5
586
100
AcDbEntity
  8
0
100
AcDbMText
 10
-3.425577
 20
0.0
 30
0.0
 40
1.540968
 41
6.851153
 71
     5
 72
     5
  1
\C7;\fArial|b0|i0|;\H1.5409676972777;xxx
  0
ENDBLK
  5
587
100
AcDbEntity
  8
0
100
AcDbBlockEnd
  0
BLOCK
  5
589
100
AcDbEntity
  8
0
100
AcDbBlockBegin
  2
MASTER_165
 70
     0
 10
0.0
 20
0.0
 30
0.0
  3
MASTER_165
  1

  0
LINE
  5
58A
100
AcDbEntity
  8
0
  6
CONTINUOUS
 62
     7
100
AcDbLine
 10
13.8456
 20
4.5
 30
0.0
 11
13.8456
 21
0.5
 31
0.0
  0
LINE
  5
58B
102
{ACAD_REACTORS
330
5A6
102
}
100
AcDbEntity
  8
0
  6
CONTINUOUS
 62
     7
100
AcDbLine
 10
0.042333
 20
4.5
 30
0.0
 11
13.8456
 21
4.5
 31
0.0
  0
LINE
  5
58C
102
{ACAD_REACTORS
330
5A6
102
}
100
AcDbEntity
  8
0
  6
CONTINUOUS
 62
     7
100
AcDbLine
 10
13.8456
 20
4.5
 30
0.0
 11
15.0
 21
2.5
 31
0.0
  0
LINE
  5
58D
102
{ACAD_REACTORS
330
5A6
102
}
100
AcDbEntity
  8
0
  6
CONTINUOUS
 62
     7
100
AcDbLine
 10
15.0
 20
2.5
 30
0.0
 11
13.8456
 21
0.5
 31
0.0
  0
LINE
  5
58E
102
{ACAD_REACTORS
330
5A6
102
}
100
AcDbEntity
  8
0
  6
CONTINUOUS
 62
     7
100
AcDbLine
 10
13.8456
 20
0.5
 30
0.0
 11
0.042333
 21
0.5
 31
0.0
  0
LWPOLYLINE
  5
58F
100
AcDbEntity
  8
0
  6
CONTINUOUS
 62
     7
100
AcDbPolyline
 90
        8
 70
     0
 10
0.011024
 20
5.0
 10
10.0
 20
5.0
 10
11.299038
 20
4.5
 10
10.0
 20
4.5
 10
10.0
 20
0.5
 10
11.299038
 20
0.5
 10
10.0
 20
0.0
 10
0.011024
 20
0.0
  0
LINE
  5
590
100
AcDbEntity
  8
0
  6
CONTINUOUS
 62
     7
100
AcDbLine
 10
10.0
 20
5.0
 30
0.0
 11
10.0
 21
0.0
 31
0.0
  0
ENDBLK
  5
591
100
AcDbEntity
  8
0
100
AcDbBlockEnd
  0
BLOCK
  5
593
100
AcDbEntity
  8
0
100
AcDbBlockBegin
  2
MASTER_166
 70
     0
 10
0.0
 20
0.0
 30
0.0
  3
MASTER_166
  1

  0
LWPOLYLINE
  5
594
102
{ACAD_REACTORS
330
5A6
102
}
100
AcDbEntity
  8
0
  6
CONTINUOUS
 62
     7
100
AcDbPolyline
 90
        4
 70
     1
 10
0.0
 20
0.0
 10
5.5
 20
0.0
 10
5.5
 20
4.0
 10
0.0
 20
4.0
  0
LWPOLYLINE
  5
595
100
AcDbEntity
  8
0
  6
DASHED
 62
     7
100
AcDbPolyline
 90
        4
 70
     1
 10
0.0
 20
0.375
 10
5.5
 20
0.375
 10
5.5
 20
3.625
 10
0.0
 20
3.625
  0
ENDBLK
  5
596
100
AcDbEntity
  8
0
100
AcDbBlockEnd
  0
BLOCK
  5
598
100
AcDbEntity
  8
0
100
AcDbBlockBegin
  2
MASTER_167
 70
     0
 10
0.0
 20
0.0
 30
0.0
  3
MASTER_167
  1

  0
LWPOLYLINE
  5
599
102
{ACAD_REACTORS
330
5A6
102
}
100
AcDbEntity
  8
0
  6
CONTINUOUS
 62
     7
100
AcDbPolyline
 90
        2
 70
     1
 10
0.0
 20
22.522222
 10
0.0
 20
14.111111
  0
LWPOLYLINE
  5
59A
102
{ACAD_REACTORS
330
5A6
102
}
100
AcDbEntity
  8
0
  6
CONTINUOUS
 62
     7
100
AcDbPolyline
 90
        2
 70
     1
 10
25.0
 20
22.522222
 10
25.0
 20
14.111111
  0
LINE
  5
59B
100
AcDbEntity
  8
0
  6
CONTINUOUS
 62
     7
100
AcDbLine
 10
12.5
 20
19.7
 30
0.0
 11
0.0
 21
19.7
 31
0.0
  0
LINE
  5
59C
100
AcDbEntity
  8
0
  6
CONTINUOUS
 62
     7
100
AcDbLine
 10
12.5
 20
19.7
 30
0.0
 11
25.0
 21
19.7
 31
0.0
  0
MTEXT
  5
59D
100
AcDbEntity
  8
0
100
AcDbMText
 10
12.5
 20
22.099517
 30
0.0
 40
2.054647
 41
12.814054
 71
     5
 72
     5
  1
\C7;\fArial|b0|i0|;\H2.0546471100301;25,00mm
  0
ENDBLK
  5
59E
100
AcDbEntity
  8
0
100
AcDbBlockEnd
  0
BLOCK
  5
5A0
100
AcDbEntity
  8
0
100
AcDbBlockBegin
  2
MASTER_168
 70
     2
 10
0.0
 20
0.0
 30
0.0
  3
MASTER_168
  1

  0
ATTDEF
  5
5A1
100
AcDbEntity
  8
0
100
AcDbText
 10
0.0
 20
12.7
 30
0.0
 40
0.2
  1
1.1811023622047
100
AcDbAttributeDefinition
  3
L\U+00E4nge
  2
LENGTH
 70
     0
  0
ATTDEF
  5
5A2
100
AcDbEntity
  8
0
100
AcDbText
 10
0.0
 20
12.7
 30
0.0
 40
0.2
  1
Anmerkung
100
AcDbAttributeDefinition
  3
Shape-Klasse
  2
SHAPECLASS
 70
     0
  0
ATTDEF
  5
5A3
100
AcDbEntity
  8
0
100
AcDbText
 10
0.0
 20
12.7
 30
0.0
 40
0.2
  1
Ma\U+00DFtool
100
AcDbAttributeDefinition
  3
Shape-Typ
  2
SHAPETYPE
 70
     0
  0
ATTDEF
  5
5A4
100
AcDbEntity
  8
0
100
AcDbText
 10
0.0
 20
12.7
 30
0.0
 40
0.2
  1

100
AcDbAttributeDefinition
  3
Teil-Shape-Typ
  2
SUBSHAPETYPE
 70
     0
  0
LWPOLYLINE
  5
5A5
102
{ACAD_REACTORS
330
5A6
102
}
100
AcDbEntity
  8
0
  6
CONTINUOUS
 62
     7
100
AcDbPolyline
 90
        6
 70
     1
 10
0.0
 20
12.7
 10
0.0
 20
19.022825
 42
-0.414223
 10
1.580706
 20
20.603531
 10
14.04066
 20
20.603531
 42
-0.414223
 10
17.202072
 20
17.442119
 10
17.202072
 20
12.7
  0
HATCH
  5
5A6
100
AcDbEntity
  8
0
 62
   254
100
AcDbHatch
 10
0.0
 20
0.0
 30
0.0
210
0.0
220
0.0
230
1.0
  2
SOLID
 70
     1
 71
     1
 91
        1
 92
        3
 72
     1
 73
     1
 93
        6
 10
0.0
 20
12.699999999999999
 42
0.0
 10
0.0
 20
19.022824783637152
 42
-0.4142231524190839
 10
1.5807061959093098
 20
20.603530979546438
 42
0.0
 10
14.040659567717709
 20
20.603530979546438
 42
-0.4142231524190798
 10
17.202071959536283
 20
17.442118587727865
 42
0.0
 10
17.202071959536283
 20
12.699999999999999
 42
0.0
 97
       87
330
4CD
330
4D6
330
4DF
330
4E0
330
4E1
330
4E2
330
4E4
330
4E5
330
4E6
330
4E8
330
4E9
330
4EA
330
4EC
330
4ED
330
4EE
330
4F0
330
4F1
330
4F2
330
4F4
330
4F5
330
4F6
330
4F8
330
4F9
330
4FA
330
4FB
330
4FC
330
4FD
330
4FE
330
4FF
330
500
330
501
330
502
330
503
330
504
330
505
330
506
330
508
330
509
330
50A
330
50B
330
50C
330
50D
330
50F
330
510
330
511
330
513
330
514
330
515
330
516
330
518
330
519
330
51A
330
51F
330
521
330
523
330
525
330
527
330
529
330
52E
330
532
330
536
330
53C
330
53D
330
541
330
542
330
543
330
547
330
548
330
54E
330
54F
330
55A
330
55B
330
55E
330
567
330
568
330
573
330
574
330
580
330
581
330
58B
330
58C
330
58D
330
58E
330
594
330
599
330
59A
330
5A5
 75
     0
 76
     1
 98
        0
  0
LINE
  5
5A7
100
AcDbEntity
  8
0
  6
CONTINUOUS
 62
     7
100
AcDbLine
 10
17.202072
 20
13.490353
 30
0.0
 11
30.0
 21
13.490353
 31
0.0
  0
LINE
  5
5A8
100
AcDbEntity
  8
0
  6
CONTINUOUS
 62
     7
100
AcDbLine
 10
30.0
 20
14.280706
 30
0.0
 11
30.0
 21
12.7
 31
0.0
  0
LINE
  5
5A9
100
AcDbEntity
  8
0
  6
CONTINUOUS
 62
     7
100
AcDbLine
 10
27.867012
 20
13.490353
 30
0.0
 11
27.867012
 21
13.88553
 31
0.0
  0
LINE
  5
5AA
100
AcDbEntity
  8
0
  6
CONTINUOUS
 62
     7
100
AcDbLine
 10
25.734024
 20
13.490353
 30
0.0
 11
25.734024
 21
14.280706
 31
0.0
  0
LINE
  5
5AB
100
AcDbEntity
  8
0
  6
CONTINUOUS
 62
     7
100
AcDbLine
 10
23.601036
 20
13.490353
 30
0.0
 11
23.601036
 21
13.88553
 31
0.0
  0
LINE
  5
5AC
100
AcDbEntity
  8
0
  6
CONTINUOUS
 62
     7
100
AcDbLine
 10
21.468048
 20
13.490353
 30
0.0
 11
21.468048
 21
14.280706
 31
0.0
  0
LINE
  5
5AD
100
AcDbEntity
  8
0
  6
CONTINUOUS
 62
     7
100
AcDbLine
 10
19.33506
 20
13.490353
 30
0.0
 11
19.33506
 21
13.88553
 31
0.0
  0
MTEXT
  5
5AE
100
AcDbEntity
  8
0
100
AcDbMText
 10
8.601036
 20
16.651765
 30
0.0
 40
3.082006
 41
17.202072
 71
     5
 72
     5
  1
\C7;\fArial|b0|i0|;\H3.0820059355348;30 mm.
  0
LWPOLYLINE
  5
5AF
102
{ACAD_REACTORS
330
5B0
102
}
100
AcDbEntity
  8
0
  6
CONTINUOUS
 62
     7
100
AcDbPolyline
 90
        4
 70
     1
 10
17.202072
 20
13.490353
 10
30.0
 20
13.490353
 10
30.0
 20
14.280706
 10
17.202072
 20
14.280706
  0
HATCH
  5
5B0
100
AcDbEntity
  8
0
 62
     2
100
AcDbHatch
 10
0.0
 20
0.0
 30
0.0
210
0.0
220
0.0
230
1.0
  2
SOLID
 70
     1
 71
     1
 91
        1
 92
        3
 72
     0
 73
     1
 93
        4
 10
17.202071959536283
 20
13.490353097954644
 10
29.999999999999989
 20
13.490353097954644
 10
29.999999999999989
 20
14.280706195909287
 10
17.202071959536283
 20
14.280706195909287
 97
        1
330
5AF
 75
     0
 76
     1
 98
        0
  0
ENDBLK
  5
5B1
100
AcDbEntity
  8
0
100
AcDbBlockEnd
  0
BLOCK
  5
5B3
100
AcDbEntity
  8
0
100
AcDbBlockBegin
  2
MASTER_169
 70
     0
 10
0.0
 20
0.0
 30
0.0
  3
MASTER_169
  1

  0
LWPOLYLINE
  5
5B4
102
{ACAD_REACTORS
330
5C3
102
}
100
AcDbEntity
  8
0
  6
CONTINUOUS
 62
     7
100
AcDbPolyline
 90
        4
 70
     1
 10
0.0
 20
0.0
 10
23.0
 20
0.0
 10
23.0
 20
12.0
 10
0.0
 20
12.0
  0
LWPOLYLINE
  5
5B5
102
{ACAD_REACTORS
330
5C3
102
}
100
AcDbEntity
  8
0
  6
CONTINUOUS
 62
     7
100
AcDbPolyline
 90
        3
 70
     1
 10
23.062816
 20
12.0
 10
25.937184
 20
6.0
 10
23.062816
 20
0.0
  0
ENDBLK
  5
5B6
100
AcDbEntity
  8
0
100
AcDbBlockEnd
  0
BLOCK
  5
5B8
100
AcDbEntity
  8
0
100
AcDbBlockBegin
  2
MASTER_170
 70
     0
 10
0.0
 20
0.0
 30
0.0
  3
MASTER_170
  1

  0
LWPOLYLINE
  5
5B9
102
{ACAD_REACTORS
330
5C3
102
}
100
AcDbEntity
  8
0
  6
CONTINUOUS
 62
     7
100
AcDbPolyline
 90
        4
 70
     1
 10
6.25
 20
0.0
 10
18.75
 20
0.0
 10
25.0
 20
15.0
 10
0.0
 20
15.0
  0
ENDBLK
  5
5BA
100
AcDbEntity
  8
0
100
AcDbBlockEnd
  0
BLOCK
  5
5BC
100
AcDbEntity
  8
0
100
AcDbBlockBegin
  2
MASTER_171
 70
     2
 10
0.0
 20
0.0
 30
0.0
  3
MASTER_171
  1

  0
ELLIPSE
  5
5BD
102
{ACAD_REACTORS
330
5C3
102
}
100
AcDbEntity
  8
0
  6
CONTINUOUS
 62
     7
100
AcDbEllipse
 10
2.499422
 20
18.509966
 30
0.0
 11
0.0
 21
-2.5856237116417011
 31
0.0
210
0.0
220
0.0
230
1.0
 40
0.842937
 41
2.8904651824959871
 42
4.9469345405549223
  0
ELLIPSE
  5
5BE
102
{ACAD_REACTORS
330
5C3
102
}
100
AcDbEntity
  8
0
  6
CONTINUOUS
 62
     7
100
AcDbEllipse
 10
2.654919
 20
15.051723
 30
0.0
 11
0.0
 21
-3.9307280963815341
 31
0.0
210
0.0
220
0.0
230
1.0
 40
0.842937
 41
3.8985563684881783
 42
5.353756627346911
  0
LINE
  5
5BF
102
{ACAD_REACTORS
330
5C3
102
}
100
AcDbEntity
  8
0
  6
CONTINUOUS
 62
     7
100
AcDbLine
 10
0.0
 20
12.7
 30
0.0
 11
10.0
 21
12.7
 31
0.0
  0
ELLIPSE
  5
5C0
102
{ACAD_REACTORS
330
5C3
102
}
100
AcDbEntity
  8
0
  6
CONTINUOUS
 62
     7
100
AcDbEllipse
 10
7.913829
 20
14.989141
 30
0.0
 11
0.0
 21
-3.3712340429415355
 31
0.0
210
0.0
220
0.0
230
1.0
 40
0.842937
 41
0.8243673585995684
 42
2.3827909109956367
  0
ELLIPSE
  5
5C1
102
{ACAD_REACTORS
330
5C3
102
}
100
AcDbEntity
  8
0
  6
CONTINUOUS
 62
     7
100
AcDbEllipse
 10
7.270229
 20
18.154583
 30
0.0
 11
0.0
 21
-3.1658502934586035
 31
0.0
210
0.0
220
0.0
230
1.0
 40
0.842937
 41
1.3416636483443936
 42
3.1143441502262883
  0
ELLIPSE
  5
5C2
102
{ACAD_REACTORS
330
5C3
102
}
100
AcDbEntity
  8
0
  6
CONTINUOUS
 62
     7
100
AcDbEllipse
 10
5.268779
 20
19.641221
 30
0.0
 11
0.0
 21
-2.9783414543019218
 31
0.0
210
0.0
220
0.0
230
1.0
 40
0.842937
 41
2.1693075006758868
 42
4.2331725932583826
  0
HATCH
  5
5C3
100
AcDbEntity
  8
0
 62
     7
100
AcDbHatch
 10
0.0
 20
0.0
 30
0.0
210
0.0
220
0.0
230
1.0
  2

 70
     0
 71
     1
 91
        1
 92
        0
 93
        6
 72
     3
 10
2.4994221161109946
 20
18.509966490965773
 11
2.1795166748533892
 21
0.0
 40
1.186329
 50
75.611456
 51
193.438471
 73
     1
 72
     3
 10
2.6549187492818502
 20
15.051722648830189
 11
3.3133542950604888
 21
0.0
 40
1.186329
 50
133.370826
 51
216.747659
 73
     1
 72
     1
 10
-0.0000000000000127
 20
12.699999999999999
 11
9.9999999999999822
 21
12.699999999999999
 72
     3
 10
7.9138292157435917
 20
14.989140515152091
 11
2.8417363200769854
 21
0.0
 40
1.186329
 50
317.23277
 51
46.523863
 73
     1
 72
     3
 10
7.2702293433492384
 20
18.154582502034085
 11
2.6686108553287751
 21
0.0
 40
1.186329
 50
346.871665
 51
88.438776
 73
     1
 72
     3
 10
5.2687791435992342
 20
19.641221083617722
 11
2.5105528054337629
 21
0.0
 40
1.186329
 50
34.292164
 51
152.542924
 73
     1
 97
        9
330
5B4
330
5B5
330
5B9
330
5BD
330
5BE
330
5BF
330
5C0
330
5C1
330
5C2
 75
     0
 76
     1
 52
0.0
 41
25.4
 77
     0
 78
     1
 53
45.0
 43
0.0
 44
0.0
 45
-2.2351999999999999
 46
2.2351999999999999
 79
     0
 98
        0
  0
ENDBLK
  5
5C4
100
AcDbEntity
  8
0
100
AcDbBlockEnd
  0
BLOCK
  5
5C6
100
AcDbEntity
  8
0
100
AcDbBlockBegin
  2
MASTER_172
 70
     0
 10
0.0
 20
0.0
 30
0.0
  3
MASTER_172
  1

  0
LWPOLYLINE
  5
5C7
100
AcDbEntity
  8
0
  6
CONTINUOUS
 62
     6
100
AcDbPolyline
 90
        4
 70
     1
 10
5.0
 20
5.0
 10
292.0
 20
5.0
 10
292.0
 20
215.396463
 10
5.0
 20
215.396463
  0
LINE
  5
5C8
100
AcDbEntity
  8
0
  6
CONTINUOUS
 62
     7
100
AcDbLine
 10
44.625
 20
210.396463
 30
0.0
 11
44.625
 21
215.396463
 31
0.0
  0
LINE
  5
5C9
100
AcDbEntity
  8
0
  6
CONTINUOUS
 62
     7
100
AcDbLine
 10
79.25
 20
210.396463
 30
0.0
 11
79.25
 21
215.396463
 31
0.0
  0
LINE
  5
5CA
100
AcDbEntity
  8
0
  6
CONTINUOUS
 62
     7
100
AcDbLine
 10
113.875
 20
210.396463
 30
0.0
 11
113.875
 21
215.396463
 31
0.0
  0
LINE
  5
5CB
100
AcDbEntity
  8
0
  6
CONTINUOUS
 62
     7
100
AcDbLine
 10
148.5
 20
210.396463
 30
0.0
 11
148.5
 21
215.396463
 31
0.0
  0
LINE
  5
5CC
100
AcDbEntity
  8
0
  6
CONTINUOUS
 62
     7
100
AcDbLine
 10
183.125
 20
210.396463
 30
0.0
 11
183.125
 21
215.396463
 31
0.0
  0
LINE
  5
5CD
100
AcDbEntity
  8
0
  6
CONTINUOUS
 62
     7
100
AcDbLine
 10
217.75
 20
210.396463
 30
0.0
 11
217.75
 21
215.396463
 31
0.0
  0
LINE
  5
5CE
100
AcDbEntity
  8
0
  6
CONTINUOUS
 62
     7
100
AcDbLine
 10
252.375
 20
210.396463
 30
0.0
 11
252.375
 21
215.396463
 31
0.0
  0
LINE
  5
5CF
100
AcDbEntity
  8
0
  6
CONTINUOUS
 62
     7
100
AcDbLine
 10
44.625
 20
10.0
 30
0.0
 11
44.625
 21
5.0
 31
0.0
  0
LINE
  5
5D0
100
AcDbEntity
  8
0
  6
CONTINUOUS
 62
     7
100
AcDbLine
 10
79.25
 20
10.0
 30
0.0
 11
79.25
 21
5.0
 31
0.0
  0
LINE
  5
5D1
100
AcDbEntity
  8
0
  6
CONTINUOUS
 62
     7
100
AcDbLine
 10
113.875
 20
10.0
 30
0.0
 11
113.875
 21
5.0
 31
0.0
  0
LINE
  5
5D2
100
AcDbEntity
  8
0
  6
CONTINUOUS
 62
     7
100
AcDbLine
 10
148.5
 20
10.0
 30
0.0
 11
148.5
 21
5.0
 31
0.0
  0
LINE
  5
5D3
100
AcDbEntity
  8
0
  6
CONTINUOUS
 62
     7
100
AcDbLine
 10
183.125
 20
10.0
 30
0.0
 11
183.125
 21
5.0
 31
0.0
  0
LINE
  5
5D4
100
AcDbEntity
  8
0
  6
CONTINUOUS
 62
     7
100
AcDbLine
 10
217.75
 20
10.0
 30
0.0
 11
217.75
 21
5.0
 31
0.0
  0
LINE
  5
5D5
100
AcDbEntity
  8
0
  6
CONTINUOUS
 62
     7
100
AcDbLine
 10
252.375
 20
10.0
 30
0.0
 11
252.375
 21
5.0
 31
0.0
  0
LINE
  5
5D6
100
AcDbEntity
  8
0
  6
CONTINUOUS
 62
     7
100
AcDbLine
 10
10.0
 20
185.346905
 30
0.0
 11
5.0
 21
185.346905
 31
0.0
  0
LINE
  5
5D7
100
AcDbEntity
  8
0
  6
CONTINUOUS
 62
     7
100
AcDbLine
 10
10.0
 20
160.297347
 30
0.0
 11
5.0
 21
160.297347
 31
0.0
  0
LINE
  5
5D8
100
AcDbEntity
  8
0
  6
CONTINUOUS
 62
     7
100
AcDbLine
 10
10.0
 20
135.247789
 30
0.0
 11
5.0
 21
135.247789
 31
0.0
  0
LINE
  5
5D9
100
AcDbEntity
  8
0
  6
CONTINUOUS
 62
     7
100
AcDbLine
 10
10.0
 20
110.198231
 30
0.0
 11
5.0
 21
110.198231
 31
0.0
  0
LINE
  5
5DA
100
AcDbEntity
  8
0
  6
CONTINUOUS
 62
     7
100
AcDbLine
 10
10.0
 20
85.148674
 30
0.0
 11
5.0
 21
85.148674
 31
0.0
  0
LINE
  5
5DB
100
AcDbEntity
  8
0
  6
CONTINUOUS
 62
     7
100
AcDbLine
 10
10.0
 20
60.099116
 30
0.0
 11
5.0
 21
60.099116
 31
0.0
  0
LINE
  5
5DC
100
AcDbEntity
  8
0
  6
CONTINUOUS
 62
     7
100
AcDbLine
 10
10.0
 20
35.049558
 30
0.0
 11
5.0
 21
35.049558
 31
0.0
  0
LINE
  5
5DD
100
AcDbEntity
  8
0
  6
CONTINUOUS
 62
     7
100
AcDbLine
 10
287.0
 20
185.346905
 30
0.0
 11
292.0
 21
185.346905
 31
0.0
  0
LINE
  5
5DE
100
AcDbEntity
  8
0
  6
CONTINUOUS
 62
     7
100
AcDbLine
 10
287.0
 20
160.297347
 30
0.0
 11
292.0
 21
160.297347
 31
0.0
  0
LINE
  5
5DF
100
AcDbEntity
  8
0
  6
CONTINUOUS
 62
     7
100
AcDbLine
 10
287.0
 20
135.247789
 30
0.0
 11
292.0
 21
135.247789
 31
0.0
  0
LINE
  5
5E0
100
AcDbEntity
  8
0
  6
CONTINUOUS
 62
     7
100
AcDbLine
 10
287.0
 20
110.198231
 30
0.0
 11
292.0
 21
110.198231
 31
0.0
  0
LINE
  5
5E1
100
AcDbEntity
  8
0
  6
CONTINUOUS
 62
     7
100
AcDbLine
 10
287.0
 20
85.148674
 30
0.0
 11
292.0
 21
85.148674
 31
0.0
  0
LINE
  5
5E2
100
AcDbEntity
  8
0
  6
CONTINUOUS
 62
     7
100
AcDbLine
 10
287.0
 20
60.099116
 30
0.0
 11
292.0
 21
60.099116
 31
0.0
  0
LINE
  5
5E3
100
AcDbEntity
  8
0
  6
CONTINUOUS
 62
     7
100
AcDbLine
 10
287.0
 20
35.049558
 30
0.0
 11
292.0
 21
35.049558
 31
0.0
  0
LWPOLYLINE
  5
5E4
100
AcDbEntity
  8
0
  6
CONTINUOUS
 62
     7
100
AcDbPolyline
 90
        4
 70
     1
 10
10.0
 20
210.396463
 10
10.0
 20
10.0
 10
287.0
 20
10.0
 10
287.0
 20
210.396463
  0
MTEXT
  5
5E5
100
AcDbEntity
  8
0
100
AcDbMText
 10
289.5
 20
213.966627
 30
0.0
 40
3.082006
 41
5.0
 71
     2
 72
     5
  1
\C7;\fArial|b0|i0|;\H3.0820059355348;H\PG\PF\PE\PD\PC\PB\PA\P
  0
MTEXT
  5
5E6
100
AcDbEntity
  8
0
100
AcDbMText
 10
5.0
 20
7.5
 30
0.0
 40
3.082006
 41
287.0
 71
     4
 72
     5
  1
\C7;\fArial|b0|i0|;\H3.0820059355348;87654321
  0
MTEXT
  5
5E7
100
AcDbEntity
  8
0
100
AcDbMText
 10
7.5
 20
213.966627
 30
0.0
 40
3.082006
 41
5.0
 71
     2
 72
     5
  1
\C7;\fArial|b0|i0|;\H3.0820059355348;H\PG\PF\PE\PD\PC\PB\PA\P
  0
MTEXT
  5
5E8
100
AcDbEntity
  8
0
100
AcDbMText
 10
5.0
 20
212.896463
 30
0.0
 40
3.082006
 41
287.0
 71
     4
 72
     5
  1
\C7;\fArial|b0|i0|;\H3.0820059355348;87654321
  0
ENDBLK
  5
5E9
100
AcDbEntity
  8
0
100
AcDbBlockEnd
  0
BLOCK
  5
5EB
100
AcDbEntity
  8
0
100
AcDbBlockBegin
  2
LAGER-FRONT
 70
     0
 10
0.0
 20
0.0
 30
0.0
  3
LAGER-FRONT
  1

  0
LWPOLYLINE
  5
5EC
100
AcDbEntity
  8
0
  6
CONTINUOUS
 62
     7
100
AcDbPolyline
 90
        2
 70
     1
 10
0.0
 20
9.5
 42
-1.0
 10
19.0
 20
9.5
 42
-1.0
  0
LWPOLYLINE
  5
5ED
100
AcDbEntity
  8
0
  6
CONTINUOUS
 62
     7
100
AcDbPolyline
 90
        2
 70
     1
 10
1.5
 20
9.5
 42
-1.0
 10
17.5
 20
9.5
 42
-1.0
  0
LWPOLYLINE
  5
5EE
100
AcDbEntity
  8
0
  6
CONTINUOUS
 62
     7
100
AcDbPolyline
 90
        2
 70
     1
 10
4.0
 20
9.5
 42
-1.0
 10
15.0
 20
9.5
 42
-1.0
  0
LWPOLYLINE
  5
5EF
100
AcDbEntity
  8
0
  6
CONTINUOUS
 62
     7
100
AcDbPolyline
 90
        2
 70
     1
 10
5.5
 20
9.5
 42
-1.0
 10
13.5
 20
9.5
 42
-1.0
  0
ENDBLK
  5
5F0
100
AcDbEntity
  8
0
100
AcDbBlockEnd
  0
BLOCK
  5
5F2
100
AcDbEntity
  8
0
100
AcDbBlockBegin
  2
SPACE
 70
     0
 10
0.0
 20
0.0
 30
0.0
  3
SPACE
  1

  0
LWPOLYLINE
  5
5F3
100
AcDbEntity
  8
0
  6
CONTINUOUS
 62
     7
100
AcDbPolyline
 90
        6
 70
     0
 10
6.0
 20
25.0
 10
1.967
 20
16.934
 42
0.322823
 10
2.528961
 20
13.471039
 10
5.87868
 20
10.12132
 42
-0.414214
 10
5.87868
 20
5.87868
 10
0.0
 20
0.0
  0
ENDBLK
  5
5F4
100
AcDbEntity
  8
0
100
AcDbBlockEnd
  0
BLOCK
  5
5F6
100
AcDbEntity
  8
0
100
AcDbBlockBegin
  2
M-LINIE
 70
     0
 10
0.0
 20
0.0
 30
0.0
  3
M-LINIE
  1

  0
LINE
  5
5F8
100
AcDbEntity
  8
0
  6
DASHDOT
 62
     7
100
AcDbLine
 10
0.0
 20
12.7
 30
0.0
 11
86.0
 21
12.7
 31
0.0
  0
ENDBLK
  5
5F9
100
AcDbEntity
  8
0
100
AcDbBlockEnd
  0
BLOCK
  5
5FB
100
AcDbEntity
  8
0
100
AcDbBlockBegin
  2
SCHRAUBEN_M5
 70
     0
 10
0.0
 20
0.0
 30
0.0
  3
SCHRAUBEN_M5
  1

  0
LWPOLYLINE
  5
5FC
100
AcDbEntity
  8
0
  6
CONTINUOUS
 62
     7
100
AcDbPolyline
 90
        4
 70
     1
 10
62.5
 20
-2.5
 10
63.5
 20
-2.5
 10
63.5
 20
7.5
 10
62.5
 20
7.5
  0
LINE
  5
5FD
100
AcDbEntity
  8
0
  6
DOT
 62
     7
100
AcDbLine
 10
62.5
 20
-0.125
 30
0.0
 11
63.5
 21
-0.125
 31
0.0
  0
LINE
  5
5FE
100
AcDbEntity
  8
0
  6
DOT
 62
     7
100
AcDbLine
 10
62.5
 20
5.125
 30
0.0
 11
63.5
 21
5.125
 31
0.0
  0
LWPOLYLINE
  5
5FF
100
AcDbEntity
  8
0
  6
CONTINUOUS
 62
     7
100
AcDbPolyline
 90
        6
 70
     1
 10
53.0
 20
-2.5
 10
53.5
 20
-2.5
 10
53.5
 20
7.5
 10
53.0
 20
7.5
 10
52.5
 20
6.386956
 10
52.5
 20
-1.386956
  0
LINE
  5
600
100
AcDbEntity
  8
0
  6
CONTINUOUS
 62
     7
100
AcDbLine
 10
53.0
 20
-2.5
 30
0.0
 11
53.0
 21
7.5
 31
0.0
  0
LINE
  5
601
100
AcDbEntity
  8
0
  6
DOT
 62
     7
100
AcDbLine
 10
52.5
 20
-0.125
 30
0.0
 11
53.5
 21
-0.125
 31
0.0
  0
LINE
  5
602
100
AcDbEntity
  8
0
  6
DOT
 62
     7
100
AcDbLine
 10
52.5
 20
5.125
 30
0.0
 11
53.5
 21
5.125
 31
0.0
  0
LWPOLYLINE
  5
603
100
AcDbEntity
  8
0
  6
CONTINUOUS
 62
     7
100
AcDbPolyline
 90
        2
 70
     1
 10
72.5
 20
2.5
 42
1.0
 10
82.5
 20
2.5
 42
1.0
  0
LWPOLYLINE
  5
604
100
AcDbEntity
  8
0
  6
CONTINUOUS
 62
     7
100
AcDbPolyline
 90
        2
 70
     1
 10
74.875
 20
2.5
 42
1.0
 10
80.125
 20
2.5
 42
1.0
  0
LWPOLYLINE
  5
605
100
AcDbEntity
  8
0
  6
CONTINUOUS
 62
     7
100
AcDbPolyline
 90
        2
 70
     1
 10
32.5
 20
2.5
 42
1.0
 10
42.5
 20
2.5
 42
1.0
  0
LWPOLYLINE
  5
606
100
AcDbEntity
  8
0
  6
CONTINUOUS
 62
     7
100
AcDbPolyline
 90
        2
 70
     1
 10
34.875
 20
2.5
 42
1.0
 10
40.125
 20
2.5
 42
1.0
  0
LWPOLYLINE
  5
607
100
AcDbEntity
  8
0
  6
CONTINUOUS
 62
     7
100
AcDbPolyline
 90
        2
 70
     1
 10
33.4
 20
2.5
 42
1.0
 10
41.6
 20
2.5
 42
1.0
  0
LINE
  5
608
100
AcDbEntity
  8
0
  6
CONTINUOUS
 62
     7
100
AcDbLine
 10
65.875
 20
28.125
 30
0.0
 11
69.125
 21
28.125
 31
0.0
  0
LINE
  5
609
100
AcDbEntity
  8
0
  6
CONTINUOUS
 62
     7
100
AcDbLine
 10
65.875
 20
31.875
 30
0.0
 11
69.125
 21
31.875
 31
0.0
  0
LWPOLYLINE
  5
60A
100
AcDbEntity
  8
0
  6
CONTINUOUS
 62
     7
100
AcDbPolyline
 90
        8
 70
     0
 10
65.875
 20
25.4
 42
-0.277858
 10
65.875
 20
28.125
 42
-0.2
 10
65.875
 20
31.875
 42
-0.277858
 10
65.875
 20
34.6
 10
69.125
 20
34.6
 42
-0.277858
 10
69.125
 20
31.875
 42
-0.2
 10
69.125
 20
28.125
 42
-0.277858
 10
69.125
 20
25.4
  0
LWPOLYLINE
  5
60B
100
AcDbEntity
  8
0
  6
CONTINUOUS
 62
     7
100
AcDbPolyline
 90
        8
 70
     1
 10
65.875
 20
25.4
 10
65.5
 20
25.95
 10
65.5
 20
34.05
 10
65.875
 20
34.6
 10
69.125
 20
34.6
 10
69.5
 20
34.05
 42
-0.925926
 10
69.5
 20
25.95
 10
69.125
 20
25.4
  0
LINE
  5
60C
100
AcDbEntity
  8
0
  6
DOT
 62
     7
100
AcDbLine
 10
69.5
 20
32.5
 30
0.0
 11
65.5
 21
32.5
 31
0.0
  0
LINE
  5
60D
100
AcDbEntity
  8
0
  6
DOT
 62
     7
100
AcDbLine
 10
69.5
 20
27.5
 30
0.0
 11
65.5
 21
27.5
 31
0.0
  0
ARC
  5
60E
100
AcDbEntity
  8
0
  6
DOT
 62
     7
100
AcDbCircle
 10
69.5
 20
30.0
 30
0.0
 40
2.5
100
AcDbArc
 50
270.0
 51
90.0
  0
ARC
  5
60F
100
AcDbEntity
  8
0
  6
CONTINUOUS
 62
     7
100
AcDbCircle
 10
35.0
 20
30.0
 30
0.0
 40
4.0
100
AcDbArc
 50
0.0
 51
180.0
  0
ARC
  5
610
100
AcDbEntity
  8
0
  6
CONTINUOUS
 62
     7
100
AcDbCircle
 10
35.0
 20
30.0
 30
0.0
 40
4.0
100
AcDbArc
 50
180.0
 51
0.0
  0
LWPOLYLINE
  5
611
100
AcDbEntity
  8
0
  6
CONTINUOUS
 62
     7
100
AcDbPolyline
 90
        6
 70
     1
 10
31.0
 20
27.690599
 10
31.0
 20
32.309401
 10
35.0
 20
34.618802
 10
39.0
 20
32.309401
 10
39.0
 20
27.690599
 10
35.0
 20
25.381198
  0
LWPOLYLINE
  5
612
100
AcDbEntity
  8
0
  6
DOT
 62
     7
100
AcDbPolyline
 90
        2
 70
     1
 10
32.5
 20
30.0
 42
-1.0
 10
37.5
 20
30.0
 42
-1.0
  0
LWPOLYLINE
  5
613
100
AcDbEntity
  8
0
  6
DOT
 62
     7
100
AcDbPolyline
 90
        2
 70
     1
 10
33.25
 20
30.0
 42
-1.0
 10
36.75
 20
30.0
 42
-1.0
  0
LINE
  5
614
100
AcDbEntity
  8
0
  6
CONTINUOUS
 62
     7
100
AcDbLine
 10
-0.458333
 20
32.3
 30
0.0
 11
2.5
 21
32.3
 31
0.0
  0
LINE
  5
615
100
AcDbEntity
  8
0
  6
CONTINUOUS
 62
     7
100
AcDbLine
 10
-0.458333
 20
27.7
 30
0.0
 11
2.5
 21
27.7
 31
0.0
  0
LWPOLYLINE
  5
616
100
AcDbEntity
  8
0
  6
CONTINUOUS
 62
     7
100
AcDbPolyline
 90
        4
 70
     0
 10
-0.458333
 20
34.6
 42
0.327345
 10
-0.458333
 20
32.3
 42
0.163043
 10
-0.458333
 20
27.7
 42
0.327345
 10
-0.458333
 20
25.4
  0
LWPOLYLINE
  5
617
100
AcDbEntity
  8
0
  6
CONTINUOUS
 62
     7
100
AcDbPolyline
 90
        6
 70
     1
 10
-0.458333
 20
34.6
 10
-0.833333
 20
34.05
 10
-0.833333
 20
25.95
 10
-0.458333
 20
25.4
 10
2.5
 20
25.4
 10
2.5
 20
34.6
  0
LINE
  5
618
100
AcDbEntity
  8
0
  6
CONTINUOUS
 62
     7
100
AcDbLine
 10
16.75
 20
32.5
 30
0.0
 11
16.75
 21
27.5
 31
0.0
  0
LINE
  5
619
100
AcDbEntity
  8
0
  6
CONTINUOUS
 62
     7
100
AcDbLine
 10
5.0
 20
32.5
 30
0.0
 11
5.0
 21
27.5
 31
0.0
  0
LWPOLYLINE
  5
61A
100
AcDbEntity
  8
0
  6
CONTINUOUS
 62
     7
100
AcDbPolyline
 90
        6
 70
     1
 10
2.5
 20
32.5
 10
16.75
 20
32.5
 10
17.5
 20
31.75
 10
17.5
 20
28.25
 10
16.75
 20
27.5
 10
2.5
 20
27.5
  0
LWPOLYLINE
  5
61B
100
AcDbEntity
  8
0
  6
CONTINUOUS
 62
     7
100
AcDbPolyline
 90
        3
 70
     0
 10
3.700962
 20
27.5
 10
5.0
 20
28.25
 10
17.5
 20
28.25
  0
LWPOLYLINE
  5
61C
100
AcDbEntity
  8
0
  6
CONTINUOUS
 62
     7
100
AcDbPolyline
 90
        3
 70
     0
 10
3.700962
 20
32.5
 10
5.0
 20
31.75
 10
17.5
 20
31.75
  0
LINE
  5
61D
100
AcDbEntity
  8
0
  6
CONTINUOUS
 62
     7
100
AcDbLine
 10
14.25
 20
20.0
 30
0.0
 11
14.25
 21
15.0
 31
0.0
  0
LINE
  5
61E
100
AcDbEntity
  8
0
  6
CONTINUOUS
 62
     7
100
AcDbLine
 10
5.0
 20
20.0
 30
0.0
 11
5.0
 21
15.0
 31
0.0
  0
LWPOLYLINE
  5
61F
100
AcDbEntity
  8
0
  6
CONTINUOUS
 62
     7
100
AcDbPolyline
 90
       12
 70
     1
 10
2.5
 20
20.0
 10
14.25
 20
20.0
 10
15.0
 20
19.25
 10
15.0
 20
15.75
 10
14.25
 20
15.0
 10
2.5
 20
15.0
 10
0.0
 20
12.5
 10
0.0
 20
16.875
 10
1.25
 20
16.875
 10
1.25
 20
18.125
 10
0.0
 20
18.125
 10
0.0
 20
22.5
  0
LINE
  5
620
100
AcDbEntity
  8
0
  6
CONTINUOUS
 62
     7
100
AcDbLine
 10
2.5
 20
15.0
 30
0.0
 11
2.5
 21
20.0
 31
0.0
  0
LWPOLYLINE
  5
621
100
AcDbEntity
  8
0
  6
CONTINUOUS
 62
     7
100
AcDbPolyline
 90
        3
 70
     0
 10
3.700962
 20
15.0
 10
5.0
 20
15.75
 10
15.0
 20
15.75
  0
LWPOLYLINE
  5
622
100
AcDbEntity
  8
0
  6
CONTINUOUS
 62
     7
100
AcDbPolyline
 90
        3
 70
     0
 10
3.700962
 20
20.0
 10
5.0
 20
19.25
 10
15.0
 20
19.25
  0
LWPOLYLINE
  5
623
100
AcDbEntity
  8
0
  6
CONTINUOUS
 62
     7
100
AcDbPolyline
 90
        6
 70
     1
 10
-1.875
 20
6.5
 10
-2.5
 20
5.875
 10
-2.5
 20
-0.875
 10
-1.875
 20
-1.5
 10
2.5
 20
-1.5
 10
2.5
 20
6.5
  0
LINE
  5
624
100
AcDbEntity
  8
0
  6
CONTINUOUS
 62
     7
100
AcDbLine
 10
-1.875
 20
6.5
 30
0.0
 11
-1.875
 21
-1.5
 31
0.0
  0
LINE
  5
625
100
AcDbEntity
  8
0
  6
CONTINUOUS
 62
     7
100
AcDbLine
 10
16.75
 20
5.0
 30
0.0
 11
16.75
 21
0.0
 31
0.0
  0
LINE
  5
626
100
AcDbEntity
  8
0
  6
CONTINUOUS
 62
     7
100
AcDbLine
 10
5.0
 20
5.0
 30
0.0
 11
5.0
 21
0.0
 31
0.0
  0
LWPOLYLINE
  5
627
100
AcDbEntity
  8
0
  6
CONTINUOUS
 62
     7
100
AcDbPolyline
 90
        6
 70
     1
 10
2.5
 20
5.0
 10
16.75
 20
5.0
 10
17.5
 20
4.25
 10
17.5
 20
0.75
 10
16.75
 20
0.0
 10
2.5
 20
0.0
  0
LWPOLYLINE
  5
628
100
AcDbEntity
  8
0
  6
CONTINUOUS
 62
     7
100
AcDbPolyline
 90
        3
 70
     0
 10
3.700962
 20
0.0
 10
5.0
 20
0.75
 10
17.5
 20
0.75
  0
LWPOLYLINE
  5
629
100
AcDbEntity
  8
0
  6
CONTINUOUS
 62
     7
100
AcDbPolyline
 90
        3
 70
     0
 10
3.700962
 20
5.0
 10
5.0
 20
4.25
 10
17.5
 20
4.25
  0
LWPOLYLINE
  5
62A
100
AcDbEntity
  8
0
  6
DOT
 62
     7
100
AcDbPolyline
 90
        5
 70
     0
 10
-2.5
 20
5.0
 10
0.5
 20
5.0
 10
1.25
 20
2.5
 10
0.5
 20
0.0
 10
-2.5
 20
0.0
  0
LINE
  5
62B
100
AcDbEntity
  8
0
  6
DOT
 62
     7
100
AcDbLine
 10
0.5
 20
5.0
 30
0.0
 11
0.5
 21
0.0
 31
0.0
  0
LINE
  5
62C
100
AcDbEntity
  8
0
  6
DOT
 62
     7
100
AcDbLine
 10
-2.5
 20
3.6075
 30
0.0
 11
0.5
 21
3.6075
 31
0.0
  0
LINE
  5
62D
100
AcDbEntity
  8
0
  6
DOT
 62
     7
100
AcDbLine
 10
-2.5
 20
1.3925
 30
0.0
 11
0.5
 21
1.3925
 31
0.0
  0
LINE
  5
62E
100
AcDbEntity
  8
0
  6
CONTINUOUS
 62
     7
100
AcDbLine
 10
54.125
 20
27.7
 30
0.0
 11
50.5
 21
27.7
 31
0.0
  0
LINE
  5
62F
100
AcDbEntity
  8
0
  6
CONTINUOUS
 62
     7
100
AcDbLine
 10
54.125
 20
32.3
 30
0.0
 11
50.5
 21
32.3
 31
0.0
  0
LWPOLYLINE
  5
630
100
AcDbEntity
  8
0
  6
CONTINUOUS
 62
     7
100
AcDbPolyline
 90
        4
 70
     0
 10
54.125
 20
25.4
 42
0.327345
 10
54.125
 20
27.7
 42
0.163043
 10
54.125
 20
32.3
 42
0.327345
 10
54.125
 20
34.6
  0
LWPOLYLINE
  5
631
100
AcDbEntity
  8
0
  6
CONTINUOUS
 62
     7
100
AcDbPolyline
 90
        6
 70
     1
 10
54.125
 20
25.4
 10
54.5
 20
25.95
 10
54.5
 20
34.05
 10
54.125
 20
34.6
 10
50.5
 20
34.6
 10
50.5
 20
25.4
  0
LINE
  5
632
100
AcDbEntity
  8
0
  6
DOT
 62
     7
100
AcDbLine
 10
50.5
 20
32.5
 30
0.0
 11
54.5
 21
32.5
 31
0.0
  0
LINE
  5
633
100
AcDbEntity
  8
0
  6
DOT
 62
     7
100
AcDbLine
 10
50.5
 20
27.5
 30
0.0
 11
54.5
 21
27.5
 31
0.0
  0
LINE
  5
634
100
AcDbEntity
  8
0
  6
CONTINUOUS
 62
     7
100
AcDbLine
 10
32.0
 20
17.542333
 30
0.0
 11
32.0
 21
20.0
 31
0.0
  0
LINE
  5
635
100
AcDbEntity
  8
0
  6
CONTINUOUS
 62
     7
100
AcDbLine
 10
32.0
 20
20.0
 30
0.0
 11
33.0
 21
20.0
 31
0.0
  0
LINE
  5
636
100
AcDbEntity
  8
0
  6
CONTINUOUS
 62
     7
100
AcDbLine
 10
33.0
 20
20.0
 30
0.0
 11
33.0
 21
17.542333
 31
0.0
  0
LINE
  5
637
100
AcDbEntity
  8
0
  6
CONTINUOUS
 62
     7
100
AcDbLine
 10
32.0
 20
12.457667
 30
0.0
 11
32.0
 21
10.0
 31
0.0
  0
LINE
  5
638
100
AcDbEntity
  8
0
  6
CONTINUOUS
 62
     7
100
AcDbLine
 10
32.0
 20
10.0
 30
0.0
 11
33.0
 21
10.0
 31
0.0
  0
LINE
  5
639
100
AcDbEntity
  8
0
  6
CONTINUOUS
 62
     7
100
AcDbLine
 10
33.0
 20
10.0
 30
0.0
 11
33.0
 21
12.457667
 31
0.0
  0
LWPOLYLINE
  5
63A
100
AcDbEntity
  8
0
  6
CONTINUOUS
 62
     7
100
AcDbPolyline
 90
        4
 70
     1
 10
31.75
 20
14.18
 10
32.78
 20
15.16
 10
33.0
 20
20.0
 10
32.0
 20
20.0
  0
LWPOLYLINE
  5
63B
100
AcDbEntity
  8
0
  6
CONTINUOUS
 62
     7
100
AcDbPolyline
 90
        4
 70
     1
 10
33.28
 20
14.85
 10
32.22
 20
13.7
 10
32.0
 20
10.0
 10
33.0
 20
10.0
  0
LINE
  5
63C
100
AcDbEntity
  8
0
  6
DOT
 62
     7
100
AcDbLine
 10
32.0
 20
17.457667
 30
0.0
 11
32.0
 21
12.542333
 31
0.0
  0
LINE
  5
63D
100
AcDbEntity
  8
0
  6
DOT
 62
     7
100
AcDbLine
 10
33.0
 20
17.457667
 30
0.0
 11
33.0
 21
12.542333
 31
0.0
  0
LINE
  5
63E
100
AcDbEntity
  8
0
  6
DOT
 62
     7
100
AcDbLine
 10
32.0
 20
12.375
 30
0.0
 11
33.0
 21
12.375
 31
0.0
  0
LINE
  5
63F
100
AcDbEntity
  8
0
  6
DOT
 62
     7
100
AcDbLine
 10
32.0
 20
17.625
 30
0.0
 11
33.0
 21
17.625
 31
0.0
  0
LWPOLYLINE
  5
640
100
AcDbEntity
  8
0
  6
CONTINUOUS
 62
     7
100
AcDbPolyline
 90
       20
 70
     1
 10
46.875
 20
18.0
 10
48.5
 20
18.0
 42
0.149071
 10
49.25
 20
18.375
 42
0.185695
 10
49.5
 20
19.0
 10
49.5
 20
20.625
 10
50.5
 20
20.625
 10
50.5
 20
19.0
 42
0.185695
 10
50.75
 20
18.375
 42
0.149071
 10
51.5
 20
18.0
 10
53.125
 20
18.0
 10
53.125
 20
17.0
 10
51.5
 20
17.0
 42
0.149071
 10
50.75
 20
16.625
 42
0.185695
 10
50.5
 20
16.0
 10
50.5
 20
14.375
 10
49.5
 20
14.375
 10
49.5
 20
16.0
 42
0.185695
 10
49.25
 20
16.625
 42
0.149071
 10
48.5
 20
17.0
 10
46.875
 20
17.0
  0
LWPOLYLINE
  5
641
100
AcDbEntity
  8
0
  6
CONTINUOUS
 62
     7
100
AcDbPolyline
 90
        2
 70
     1
 10
45.0
 20
17.5
 42
-1.0
 10
55.0
 20
17.5
 42
-1.0
  0
LWPOLYLINE
  5
642
100
AcDbEntity
  8
0
  6
CONTINUOUS
 62
     7
100
AcDbPolyline
 90
       12
 70
     1
 10
48.0
 20
15.5
 10
48.875
 20
16.75
 42
0.333333
 10
48.875
 20
18.25
 10
48.0
 20
19.5
 10
49.25
 20
18.625
 42
0.333333
 10
50.75
 20
18.625
 10
52.0
 20
19.5
 10
51.125
 20
18.25
 42
0.333333
 10
51.125
 20
16.75
 10
52.0
 20
15.5
 10
50.75
 20
16.375
 42
0.333333
 10
49.25
 20
16.375
  0
LWPOLYLINE
  5
643
100
AcDbEntity
  8
0
  6
DOT
 62
     7
100
AcDbPolyline
 90
        2
 70
     1
 10
47.5
 20
17.5
 42
-1.0
 10
52.5
 20
17.5
 42
-1.0
  0
LWPOLYLINE
  5
644
100
AcDbEntity
  8
0
  6
DOT
 62
     7
100
AcDbPolyline
 90
        2
 70
     1
 10
48.25
 20
17.5
 42
-1.0
 10
51.75
 20
17.5
 42
-1.0
  0
LWPOLYLINE
  5
645
100
AcDbEntity
  8
0
  6
CONTINUOUS
 62
     7
100
AcDbPolyline
 90
        2
 70
     1
 10
73.25
 20
17.5
 42
-1.0
 10
76.75
 20
17.5
 42
-1.0
  0
ARC
  5
646
100
AcDbEntity
  8
0
  6
CONTINUOUS
 62
     7
100
AcDbCircle
 10
75.0
 20
17.5
 30
0.0
 40
3.75
100
AcDbArc
 50
0.0
 51
180.0
  0
ARC
  5
647
100
AcDbEntity
  8
0
  6
CONTINUOUS
 62
     7
100
AcDbCircle
 10
75.0
 20
17.5
 30
0.0
 40
3.75
100
AcDbArc
 50
180.0
 51
0.0
  0
LWPOLYLINE
  5
648
100
AcDbEntity
  8
0
  6
CONTINUOUS
 62
     7
100
AcDbPolyline
 90
        6
 70
     1
 10
75.0
 20
21.83
 10
71.25
 20
19.665
 10
71.25
 20
15.335
 10
75.0
 20
13.17
 10
78.75
 20
15.335
 10
78.75
 20
19.665
  0
LWPOLYLINE
  5
649
100
AcDbEntity
  8
0
  6
CONTINUOUS
 62
     7
100
AcDbPolyline
 90
        4
 70
     1
 10
76.767767
 20
19.267767
 42
-0.895043
 10
73.585786
 20
15.37868
 42
0.895043
 10
76.767767
 20
19.267767
 42
0.895043
 10
72.87868
 20
16.085786
 42
-0.895043
  0
LWPOLYLINE
  5
64A
100
AcDbEntity
  8
0
  6
CONTINUOUS
 62
     7
100
AcDbPolyline
 90
        2
 70
     1
 10
91.5
 20
27.5
 42
-1.0
 10
83.5
 20
27.5
 42
-1.0
  0
LWPOLYLINE
  5
64B
100
AcDbEntity
  8
0
  6
CONTINUOUS
 62
     7
100
AcDbPolyline
 90
        6
 70
     1
 10
87.5
 20
29.935625
 10
85.390625
 20
28.717812
 10
85.390625
 20
26.282187
 10
87.5
 20
25.064375
 10
89.609375
 20
26.282187
 10
89.609375
 20
28.717812
  0
LWPOLYLINE
  5
64C
100
AcDbEntity
  8
0
  6
CONTINUOUS
 62
     7
100
AcDbPolyline
 90
        2
 70
     1
 10
90.88
 20
27.5
 42
1.000393
 10
84.12
 20
27.5
 42
1.000393
  0
LWPOLYLINE
  5
64D
100
AcDbEntity
  8
0
  6
DOT
 62
     7
100
AcDbPolyline
 90
        2
 70
     1
 10
85.0
 20
27.5
 42
-1.0
 10
90.0
 20
27.5
 42
-1.0
  0
LWPOLYLINE
  5
64E
100
AcDbEntity
  8
0
  6
DOT
 62
     7
100
AcDbPolyline
 90
        2
 70
     1
 10
85.75
 20
27.5
 42
-1.0
 10
89.25
 20
27.5
 42
-1.0
  0
ENDBLK
  5
64F
100
AcDbEntity
  8
0
100
AcDbBlockEnd
  0
BLOCK
  5
651
100
AcDbEntity
  8
0
100
AcDbBlockBegin
  2
P-LINIE
 70
     0
 10
0.0
 20
0.0
 30
0.0
  3
P-LINIE
  1

  0
LINE
  5
652
100
AcDbEntity
  8
0
  6
DASHEDX2
 62
     7
100
AcDbLine
 10
0.0
 20
12.7
 30
0.0
 11
86.0
 21
12.7
 31
0.0
  0
ENDBLK
  5
653
100
AcDbEntity
  8
0
100
AcDbBlockEnd
  0
ENDSEC
  0
SECTION
  2
ENTITIES
  0
LINE
  5
31
102
{ACAD_REACTORS
330
AC
102
}
100
AcDbEntity
  8
0
  6
CONTINUOUS
 62
     7
100
AcDbLine
 10
213.375
 20
77.0
 30
0.0
 11
213.375
 21
80.0
 31
0.0
  0
LINE
  5
32
102
{ACAD_REACTORS
330
AC
102
}
100
AcDbEntity
  8
0
  6
CONTINUOUS
 62
     7
100
AcDbLine
 10
213.375
 20
80.0
 30
0.0
 11
213.75
 21
80.0
 31
0.0
  0
LINE
  5
33
102
{ACAD_REACTORS
330
AC
102
}
100
AcDbEntity
  8
0
  6
CONTINUOUS
 62
     7
100
AcDbLine
 10
213.75
 20
80.0
 30
0.0
 11
213.75
 21
130.0
 31
0.0
  0
LINE
  5
34
102
{ACAD_REACTORS
330
AC
102
}
100
AcDbEntity
  8
0
  6
CONTINUOUS
 62
     7
100
AcDbLine
 10
213.75
 20
130.0
 30
0.0
 11
213.5
 21
130.0
 31
0.0
  0
LINE
  5
35
102
{ACAD_REACTORS
330
AC
102
}
100
AcDbEntity
  8
0
  6
CONTINUOUS
 62
     7
100
AcDbLine
 10
213.5
 20
130.0
 30
0.0
 11
213.5
 21
133.0
 31
0.0
  0
LINE
  5
36
102
{ACAD_REACTORS
330
AC
102
}
100
AcDbEntity
  8
0
  6
CONTINUOUS
 62
     7
100
AcDbLine
 10
213.5
 20
133.0
 30
0.0
 11
213.625
 21
133.0
 31
0.0
  0
LINE
  5
37
102
{ACAD_REACTORS
330
AC
102
}
100
AcDbEntity
  8
0
  6
CONTINUOUS
 62
     7
100
AcDbLine
 10
213.625
 20
133.0
 30
0.0
 11
213.625
 21
138.0
 31
0.0
  0
LINE
  5
38
102
{ACAD_REACTORS
330
AC
102
}
100
AcDbEntity
  8
0
  6
CONTINUOUS
 62
     7
100
AcDbLine
 10
213.625
 20
138.0
 30
0.0
 11
213.625
 21
141.0
 31
0.0
  0
ELLIPSE
  5
39
102
{ACAD_REACTORS
330
AC
102
}
100
AcDbEntity
  8
0
  6
CONTINUOUS
 62
     7
100
AcDbEllipse
 10
211.849719
 20
141.0
 30
0.0
 11
-0.000000000000015
 21
-2.0000000000004476
 31
0.0
210
0.0
220
0.0
230
1.0
 40
0.88764
 41
1.5707963267954381
 42
3.1415926535896013
  0
LINE
  5
3A
102
{ACAD_REACTORS
330
AC
102
}
100
AcDbEntity
  8
0
  6
CONTINUOUS
 62
     7
100
AcDbLine
 10
211.849719
 20
143.0
 30
0.0
 11
136.400281
 21
143.0
 31
0.0
  0
ELLIPSE
  5
3B
102
{ACAD_REACTORS
330
AC
102
}
100
AcDbEntity
  8
0
  6
CONTINUOUS
 62
     7
100
AcDbEllipse
 10
136.400281
 20
141.0
 30
0.0
 11
-0.000000000000015
 21
-2.0000000000001092
 31
0.0
210
0.0
220
0.0
230
1.0
 40
0.88764
 41
-3.1415926535896128
 42
-1.5707963267948966
  0
LINE
  5
3C
102
{ACAD_REACTORS
330
AC
102
}
100
AcDbEntity
  8
0
  6
CONTINUOUS
 62
     7
100
AcDbLine
 10
134.625
 20
141.0
 30
0.0
 11
134.625
 21
133.0
 31
0.0
  0
LINE
  5
3D
102
{ACAD_REACTORS
330
AC
102
}
100
AcDbEntity
  8
0
  6
CONTINUOUS
 62
     7
100
AcDbLine
 10
134.625
 20
133.0
 30
0.0
 11
134.5
 21
133.0
 31
0.0
  0
LINE
  5
3E
102
{ACAD_REACTORS
330
AC
102
}
100
AcDbEntity
  8
0
  6
CONTINUOUS
 62
     7
100
AcDbLine
 10
134.5
 20
133.0
 30
0.0
 11
134.5
 21
130.0
 31
0.0
  0
LINE
  5
3F
102
{ACAD_REACTORS
330
AC
102
}
100
AcDbEntity
  8
0
  6
CONTINUOUS
 62
     7
100
AcDbLine
 10
134.5
 20
130.0
 30
0.0
 11
124.75
 21
130.0
 31
0.0
  0
LINE
  5
40
102
{ACAD_REACTORS
330
AC
102
}
100
AcDbEntity
  8
0
  6
CONTINUOUS
 62
     7
100
AcDbLine
 10
124.75
 20
130.0
 30
0.0
 11
121.75
 21
130.0
 31
0.0
  0
LINE
  5
41
102
{ACAD_REACTORS
330
AC
102
}
100
AcDbEntity
  8
0
  6
CONTINUOUS
 62
     7
100
AcDbLine
 10
121.75
 20
130.0
 30
0.0
 11
61.75
 21
130.0
 31
0.0
  0
LINE
  5
42
102
{ACAD_REACTORS
330
AC
102
}
100
AcDbEntity
  8
0
  6
CONTINUOUS
 62
     7
100
AcDbLine
 10
61.75
 20
130.0
 30
0.0
 11
58.75
 21
130.0
 31
0.0
  0
LINE
  5
43
102
{ACAD_REACTORS
330
AC
102
}
100
AcDbEntity
  8
0
  6
CONTINUOUS
 62
     7
100
AcDbLine
 10
58.75
 20
130.0
 30
0.0
 11
51.25
 21
130.0
 31
0.0
  0
ARC
  5
44
102
{ACAD_REACTORS
330
AC
102
}
100
AcDbEntity
  8
0
  6
CONTINUOUS
 62
     7
100
AcDbCircle
 10
51.25
 20
128.0
 30
0.0
 40
2.0
100
AcDbArc
 50
90.0
 51
180.0
  0
LINE
  5
45
102
{ACAD_REACTORS
330
AC
102
}
100
AcDbEntity
  8
0
  6
CONTINUOUS
 62
     7
100
AcDbLine
 10
49.25
 20
128.0
 30
0.0
 11
49.25
 21
123.330127
 31
0.0
  0
ARC
  5
46
102
{ACAD_REACTORS
330
AC
102
}
100
AcDbEntity
  8
0
  6
CONTINUOUS
 62
     7
100
AcDbCircle
 10
51.25
 20
123.330127
 30
0.0
 40
2.0
100
AcDbArc
 50
180.0
 51
240.0
  0
ARC
  5
47
102
{ACAD_REACTORS
330
AC
102
}
100
AcDbEntity
  8
0
  6
CONTINUOUS
 62
     7
100
AcDbCircle
 10
48.75
 20
119.0
 30
0.0
 40
3.0
100
AcDbArc
 50
0.0
 51
60.0
  0
ARC
  5
48
102
{ACAD_REACTORS
330
AC
102
}
100
AcDbEntity
  8
0
  6
CONTINUOUS
 62
     7
100
AcDbCircle
 10
48.75
 20
119.0
 30
0.0
 40
3.0
100
AcDbArc
 50
300.0
 51
0.0
  0
ARC
  5
49
102
{ACAD_REACTORS
330
AC
102
}
100
AcDbEntity
  8
0
  6
CONTINUOUS
 62
     7
100
AcDbCircle
 10
48.75
 20
119.0
 30
0.0
 40
3.0
100
AcDbArc
 50
279.594068
 51
300.0
  0
LINE
  5
4A
102
{ACAD_REACTORS
330
AC
102
}
100
AcDbEntity
  8
0
  6
CONTINUOUS
 62
     7
100
AcDbLine
 10
49.25
 20
116.04196
 30
0.0
 11
49.25
 21
116.0
 31
0.0
  0
LINE
  5
4B
102
{ACAD_REACTORS
330
AC
102
}
100
AcDbEntity
  8
0
  6
CONTINUOUS
 62
     7
100
AcDbLine
 10
49.25
 20
116.0
 30
0.0
 11
46.25
 21
116.0
 31
0.0
  0
LINE
  5
4C
102
{ACAD_REACTORS
330
AC
102
}
100
AcDbEntity
  8
0
  6
CONTINUOUS
 62
     7
100
AcDbLine
 10
46.25
 20
116.0
 30
0.0
 11
40.25
 21
116.0
 31
0.0
  0
LINE
  5
4D
102
{ACAD_REACTORS
330
AC
102
}
100
AcDbEntity
  8
0
  6
CONTINUOUS
 62
     7
100
AcDbLine
 10
40.25
 20
116.0
 30
0.0
 11
40.25
 21
93.7
 31
0.0
  0
LINE
  5
4E
102
{ACAD_REACTORS
330
AC
102
}
100
AcDbEntity
  8
0
  6
CONTINUOUS
 62
     7
100
AcDbLine
 10
40.25
 20
93.7
 30
0.0
 11
46.25
 21
93.7
 31
0.0
  0
LINE
  5
4F
102
{ACAD_REACTORS
330
AC
102
}
100
AcDbEntity
  8
0
  6
CONTINUOUS
 62
     7
100
AcDbLine
 10
46.25
 20
93.7
 30
0.0
 11
49.25
 21
93.7
 31
0.0
  0
ARC
  5
50
102
{ACAD_REACTORS
330
AC
102
}
100
AcDbEntity
  8
0
  6
CONTINUOUS
 62
     7
100
AcDbCircle
 10
48.848224
 20
90.96162
 30
0.0
 40
2.767697
100
AcDbArc
 50
59.570531
 51
81.653103
  0
ARC
  5
51
102
{ACAD_REACTORS
330
AC
102
}
100
AcDbEntity
  8
0
  6
CONTINUOUS
 62
     7
100
AcDbCircle
 10
48.75
 20
90.75
 30
0.0
 40
3.0
100
AcDbArc
 50
24.624318
 51
60.0
  0
ARC
  5
52
102
{ACAD_REACTORS
330
AC
102
}
100
AcDbEntity
  8
0
  6
CONTINUOUS
 62
     7
100
AcDbCircle
 10
48.75
 20
90.75
 30
0.0
 40
3.0
100
AcDbArc
 50
300.0
 51
24.624318
  0
ARC
  5
53
102
{ACAD_REACTORS
330
AC
102
}
100
AcDbEntity
  8
0
  6
CONTINUOUS
 62
     7
100
AcDbCircle
 10
51.25
 20
86.419873
 30
0.0
 40
2.0
100
AcDbArc
 50
120.0
 51
180.0
  0
LINE
  5
54
102
{ACAD_REACTORS
330
AC
102
}
100
AcDbEntity
  8
0
  6
CONTINUOUS
 62
     7
100
AcDbLine
 10
49.25
 20
86.419873
 30
0.0
 11
49.25
 21
82.0
 31
0.0
  0
ARC
  5
55
102
{ACAD_REACTORS
330
AC
102
}
100
AcDbEntity
  8
0
  6
CONTINUOUS
 62
     7
100
AcDbCircle
 10
51.25
 20
82.0
 30
0.0
 40
2.0
100
AcDbArc
 50
180.0
 51
270.0
  0
LINE
  5
56
102
{ACAD_REACTORS
330
AC
102
}
100
AcDbEntity
  8
0
  6
CONTINUOUS
 62
     7
100
AcDbLine
 10
51.25
 20
80.0
 30
0.0
 11
58.75
 21
80.0
 31
0.0
  0
LINE
  5
57
102
{ACAD_REACTORS
330
AC
102
}
100
AcDbEntity
  8
0
  6
CONTINUOUS
 62
     7
100
AcDbLine
 10
58.75
 20
80.0
 30
0.0
 11
61.75
 21
80.0
 31
0.0
  0
LINE
  5
58
102
{ACAD_REACTORS
330
AC
102
}
100
AcDbEntity
  8
0
  6
CONTINUOUS
 62
     7
100
AcDbLine
 10
61.75
 20
80.0
 30
0.0
 11
121.75
 21
80.0
 31
0.0
  0
LINE
  5
59
102
{ACAD_REACTORS
330
AC
102
}
100
AcDbEntity
  8
0
  6
CONTINUOUS
 62
     7
100
AcDbLine
 10
121.75
 20
80.0
 30
0.0
 11
124.75
 21
80.0
 31
0.0
  0
LINE
  5
5A
102
{ACAD_REACTORS
330
AC
102
}
100
AcDbEntity
  8
0
  6
CONTINUOUS
 62
     7
100
AcDbLine
 10
124.75
 20
80.0
 30
0.0
 11
134.375
 21
80.0
 31
0.0
  0
LINE
  5
5B
102
{ACAD_REACTORS
330
AC
102
}
100
AcDbEntity
  8
0
  6
CONTINUOUS
 62
     7
100
AcDbLine
 10
134.375
 20
80.0
 30
0.0
 11
134.375
 21
77.0
 31
0.0
  0
LINE
  5
5C
102
{ACAD_REACTORS
330
AC
102
}
100
AcDbEntity
  8
0
  6
CONTINUOUS
 62
     7
100
AcDbLine
 10
134.375
 20
77.0
 30
0.0
 11
134.625
 21
77.0
 31
0.0
  0
LINE
  5
5D
102
{ACAD_REACTORS
330
AC
102
}
100
AcDbEntity
  8
0
  6
CONTINUOUS
 62
     7
100
AcDbLine
 10
134.625
 20
77.0
 30
0.0
 11
134.625
 21
69.0
 31
0.0
  0
ELLIPSE
  5
5E
102
{ACAD_REACTORS
330
AC
102
}
100
AcDbEntity
  8
0
  6
CONTINUOUS
 62
     7
100
AcDbEllipse
 10
136.400281
 20
69.0
 30
0.0
 11
-0.000000000000015
 21
-2.0000000000010116
 31
0.0
210
0.0
220
0.0
230
1.0
 40
0.88764
 41
-1.5707963267948508
 42
-0.000000000000485
  0
LINE
  5
5F
102
{ACAD_REACTORS
330
AC
102
}
100
AcDbEntity
  8
0
  6
CONTINUOUS
 62
     7
100
AcDbLine
 10
136.400281
 20
67.0
 30
0.0
 11
211.849719
 21
67.0
 31
0.0
  0
ELLIPSE
  5
60
102
{ACAD_REACTORS
330
AC
102
}
100
AcDbEntity
  8
0
  6
CONTINUOUS
 62
     7
100
AcDbEllipse
 10
211.849719
 20
69.0
 30
0.0
 11
-0.000000000000015
 21
-2.0000000000012292
 31
0.0
210
0.0
220
0.0
230
1.0
 40
0.88764
 41
0.0000000000005866
 42
1.5707963267946929
  0
LINE
  5
61
102
{ACAD_REACTORS
330
AC
102
}
100
AcDbEntity
  8
0
  6
CONTINUOUS
 62
     7
100
AcDbLine
 10
213.625
 20
69.0
 30
0.0
 11
213.625
 21
72.0
 31
0.0
  0
LINE
  5
62
102
{ACAD_REACTORS
330
AC
102
}
100
AcDbEntity
  8
0
  6
CONTINUOUS
 62
     7
100
AcDbLine
 10
213.625
 20
72.0
 30
0.0
 11
213.625
 21
77.0
 31
0.0
  0
LINE
  5
63
102
{ACAD_REACTORS
330
AC
102
}
100
AcDbEntity
  8
0
  6
CONTINUOUS
 62
     7
100
AcDbLine
 10
213.625
 20
77.0
 30
0.0
 11
213.375
 21
77.0
 31
0.0
  0
LWPOLYLINE
  5
64
102
{ACAD_REACTORS
330
AC
102
}
100
AcDbEntity
  8
0
  6
CONTINUOUS
 62
     7
100
AcDbPolyline
 90
        2
 70
     1
 10
182.775
 20
87.8
 42
-1.0
 10
182.775
 20
93.3
 42
-1.0
  0
LWPOLYLINE
  5
65
102
{ACAD_REACTORS
330
AC
102
}
100
AcDbEntity
  8
0
  6
CONTINUOUS
 62
     7
100
AcDbPolyline
 90
        2
 70
     1
 10
205.025
 20
87.8
 42
-1.0
 10
205.025
 20
93.3
 42
-1.0
  0
LWPOLYLINE
  5
66
102
{ACAD_REACTORS
330
AC
102
}
100
AcDbEntity
  8
0
  6
CONTINUOUS
 62
     7
100
AcDbPolyline
 90
        2
 70
     1
 10
182.775
 20
116.05
 42
-1.0
 10
182.775
 20
121.55
 42
-1.0
  0
LWPOLYLINE
  5
67
102
{ACAD_REACTORS
330
AC
102
}
100
AcDbEntity
  8
0
  6
CONTINUOUS
 62
     7
100
AcDbPolyline
 90
        2
 70
     1
 10
205.025
 20
116.05
 42
-1.0
 10
205.025
 20
121.55
 42
-1.0
  0
LWPOLYLINE
  5
68
102
{ACAD_REACTORS
330
AC
102
}
100
AcDbEntity
  8
0
  6
CONTINUOUS
 62
     7
100
AcDbPolyline
 90
        2
 70
     1
 10
135.025
 20
87.925
 42
-1.0
 10
135.025
 20
93.425
 42
-1.0
  0
LWPOLYLINE
  5
69
102
{ACAD_REACTORS
330
AC
102
}
100
AcDbEntity
  8
0
  6
CONTINUOUS
 62
     7
100
AcDbPolyline
 90
        2
 70
     1
 10
135.025
 20
116.175
 42
-1.0
 10
135.025
 20
121.675
 42
-1.0
  0
LWPOLYLINE
  5
6A
102
{ACAD_REACTORS
330
AC
102
}
100
AcDbEntity
  8
0
  6
CONTINUOUS
 62
     7
100
AcDbPolyline
 90
        8
 70
     1
 10
256.525
 20
81.8
 10
256.525
 20
127.8
 42
0.414214
 10
254.525
 20
129.8
 10
218.525
 20
129.8
 42
0.414214
 10
216.525
 20
127.8
 10
216.525
 20
81.8
 42
0.414214
 10
218.525
 20
79.8
 10
254.525
 20
79.8
 42
0.414214
  0
LWPOLYLINE
  5
6B
102
{ACAD_REACTORS
330
AC
102
}
100
AcDbEntity
  8
0
  6
CONTINUOUS
 62
     7
100
AcDbPolyline
 90
        2
 70
     1
 10
225.525
 20
87.8
 42
-1.0
 10
225.525
 20
93.3
 42
-1.0
  0
LWPOLYLINE
  5
6C
102
{ACAD_REACTORS
330
AC
102
}
100
AcDbEntity
  8
0
  6
CONTINUOUS
 62
     7
100
AcDbPolyline
 90
        2
 70
     1
 10
247.775
 20
87.8
 42
-1.0
 10
247.775
 20
93.3
 42
-1.0
  0
LWPOLYLINE
  5
6D
102
{ACAD_REACTORS
330
AC
102
}
100
AcDbEntity
  8
0
  6
CONTINUOUS
 62
     7
100
AcDbPolyline
 90
        2
 70
     1
 10
225.525
 20
116.05
 42
-1.0
 10
225.525
 20
121.55
 42
-1.0
  0
LWPOLYLINE
  5
6E
102
{ACAD_REACTORS
330
AC
102
}
100
AcDbEntity
  8
0
  6
CONTINUOUS
 62
     7
100
AcDbPolyline
 90
        2
 70
     1
 10
247.775
 20
116.05
 42
-1.0
 10
247.775
 20
121.55
 42
-1.0
  0
LINE
  5
70
100
AcDbEntity
  8
0
  6
DASHEDX2
 62
     7
100
AcDbLine
 10
125.025
 20
131.3
 30
0.0
 11
214.025
 21
131.3
 31
0.0
  0
LINE
  5
71
100
AcDbEntity
  8
0
  6
DASHEDX2
 62
     7
100
AcDbLine
 10
125.025
 20
78.3
 30
0.0
 11
214.025
 21
78.3
 31
0.0
  0
LINE
  5
72
100
AcDbEntity
  8
0
  6
DASHEDX2
 62
     7
100
AcDbLine
 10
123.275
 20
79.8
 30
0.0
 11
123.275
 21
129.8
 31
0.0
  0
LINE
  5
73
100
AcDbEntity
  8
0
  6
DASHEDX2
 62
     7
100
AcDbLine
 10
60.275
 20
79.8
 30
0.0
 11
60.275
 21
129.8
 31
0.0
  0
LINE
  5
74
100
AcDbEntity
  8
0
  6
DASHEDX2
 62
     7
100
AcDbLine
 10
47.775
 20
93.5
 30
0.0
 11
47.775
 21
115.8
 31
0.0
  0
ENDSEC
  0
SECTION
  2
OBJECTS
  0
DICTIONARY
  5
C
100
AcDbDictionary
  3
ACAD_GROUP
350
D
  3
ACAD_MLINESTYLE
350
1B
  0
DICTIONARY
  5
D
102
{ACAD_REACTORS
330
C
102
}
100
AcDbDictionary
  0
DICTIONARY
  5
1B
102
{ACAD_REACTORS
330
C
102
}
100
AcDbDictionary
  3
STANDARD
350
1C
  0
MLINESTYLE
  5
1C
102
{ACAD_REACTORS
330
1B
102
}
100
AcDbMlineStyle
  2
STANDARD
 70
     0
  3

 62
   256
 51
90.0
 52
90.0
 71
     2
 49
0.5
 62
   256
  6
BYLAYER
 49
-0.5
 62
   256
  6
BYLAYER
  0
ENDSEC
  0
EOF
