  0
SECTION
  2
HEADER
  9
$ACADVER
  1
AC1009
  9
$INSBASE
 10
0.0
 20
0.0
 30
0.0
  9
$EXTMIN
 10
0.0
 20
0.0
 30
0.0
  9
$EXTMAX
 10
0.0
 20
0.0
 30
0.0
  0
ENDSEC
  0
SECTION
  2
TABLES
  0
TABLE
  2
VPORT
 70
0
  0
ENDTAB
  0
TABLE
  2
LTYPE
 70
1
  0
LTYPE
  2
CONTINUOUS
 70
0
  3
Solid line
 72
65
 73
0
 40
0.0
  0
ENDTAB
  0
TABLE
  2
LAYER
 70
1
  0
LAYER
  2
0
 70
64
 62
7
  6
continuous
  0
ENDTAB
  0
TABLE
  2
STYLE
 70
1
  0
STYLE
  2
STANDARD
 70
0
 40
0
 41
1.0
 50
0.0
 71
0
 42
1
 3
ARIAL.TTF
 4

  0
ENDTAB
  0
TABLE
  2
VIEW
 70
0
  0
ENDTAB
  0
ENDSEC
  0
SECTION
  2
BLOCKS
  0
ENDSEC
  0
SECTION
  2
ENTITIES
  0
POLYLINE
  8
0
 62
0
 70
1
 66
1
 10
0.0
 20
0.0
 30
0.0
  0
VERTEX
  8
0
 10
84.9
 20
107.666667
 30
0.0
 42
-1.0
  0
VERTEX
  8
0
 10
87.1
 20
107.666667
 30
0.0
 42
-1.0
  0
SEQEND
  8
0
  0
POLYLINE
  8
0
 62
0
 70
1
 66
1
 10
0.0
 20
0.0
 30
0.0
  0
VERTEX
  8
0
 10
86.0
 20
88.816667
 30
0.0
 42
0.414214
  0
VERTEX
  8
0
 10
87.1
 20
89.916667
 30
0.0
  0
VERTEX
  8
0
 10
87.1
 20
95.716667
 30
0.0
 42
0.414214
  0
VERTEX
  8
0
 10
86.0
 20
96.816667
 30
0.0
 42
0.414214
  0
VERTEX
  8
0
 10
84.9
 20
95.716667
 30
0.0
  0
VERTEX
  8
0
 10
84.9
 20
89.916667
 30
0.0
 42
0.414214
  0
SEQEND
  8
0
  0
POLYLINE
  8
0
 62
0
 70
1
 66
1
 10
0.0
 20
0.0
 30
0.0
  0
VERTEX
  8
0
 10
87.154701
 20
109.666667
 30
0.0
  0
VERTEX
  8
0
 10
84.845299
 20
109.666667
 30
0.0
  0
VERTEX
  8
0
 10
83.690599
 20
107.666667
 30
0.0
  0
VERTEX
  8
0
 10
84.845299
 20
105.666667
 30
0.0
  0
VERTEX
  8
0
 10
87.154701
 20
105.666667
 30
0.0
  0
VERTEX
  8
0
 10
88.309401
 20
107.666667
 30
0.0
  0
SEQEND
  8
0
  0
POLYLINE
  8
0
 62
0
 70
1
 66
1
 10
0.0
 20
0.0
 30
0.0
  0
VERTEX
  8
0
 10
62.9
 20
107.666667
 30
0.0
 42
-1.0
  0
VERTEX
  8
0
 10
65.1
 20
107.666667
 30
0.0
 42
-1.0
  0
SEQEND
  8
0
  0
POLYLINE
  8
0
 62
0
 70
1
 66
1
 10
0.0
 20
0.0
 30
0.0
  0
VERTEX
  8
0
 10
86.0
 20
64.666667
 30
0.0
 42
0.414214
  0
VERTEX
  8
0
 10
87.1
 20
65.766667
 30
0.0
  0
VERTEX
  8
0
 10
87.1
 20
71.566667
 30
0.0
 42
0.414214
  0
VERTEX
  8
0
 10
86.0
 20
72.666667
 30
0.0
 42
0.414214
  0
VERTEX
  8
0
 10
84.9
 20
71.566667
 30
0.0
  0
VERTEX
  8
0
 10
84.9
 20
65.766667
 30
0.0
 42
0.414214
  0
SEQEND
  8
0
  0
POLYLINE
  8
0
 62
0
 70
1
 66
1
 10
0.0
 20
0.0
 30
0.0
  0
VERTEX
  8
0
 10
73.839102
 20
83.419151
 30
0.0
 42
-0.414214
  0
VERTEX
  8
0
 10
73.436474
 20
81.916523
 30
0.0
  0
VERTEX
  8
0
 10
68.413526
 20
79.016523
 30
0.0
 42
-0.414214
  0
VERTEX
  8
0
 10
66.910898
 20
79.419151
 30
0.0
 42
-0.414214
  0
VERTEX
  8
0
 10
67.313526
 20
80.921779
 30
0.0
  0
VERTEX
  8
0
 10
72.336474
 20
83.821779
 30
0.0
 42
-0.414214
  0
SEQEND
  8
0
  0
POLYLINE
  8
0
 62
0
 70
1
 66
1
 10
0.0
 20
0.0
 30
0.0
  0
VERTEX
  8
0
 10
73.839102
 20
78.821635
 30
0.0
 42
-0.414214
  0
VERTEX
  8
0
 10
73.436474
 20
77.319007
 30
0.0
  0
VERTEX
  8
0
 10
68.413526
 20
74.419007
 30
0.0
 42
-0.414214
  0
VERTEX
  8
0
 10
66.910898
 20
74.821635
 30
0.0
 42
-0.414214
  0
VERTEX
  8
0
 10
67.313526
 20
76.324263
 30
0.0
  0
VERTEX
  8
0
 10
72.336474
 20
79.224263
 30
0.0
 42
-0.414214
  0
SEQEND
  8
0
  0
POLYLINE
  8
0
 62
0
 70
1
 66
1
 10
0.0
 20
0.0
 30
0.0
  0
VERTEX
  8
0
 10
65.1
 20
30.666667
 30
0.0
 42
-1.0
  0
VERTEX
  8
0
 10
62.9
 20
30.666667
 30
0.0
 42
-1.0
  0
SEQEND
  8
0
  0
POLYLINE
  8
0
 62
0
 70
1
 66
1
 10
0.0
 20
0.0
 30
0.0
  0
VERTEX
  8
0
 10
87.1
 20
30.666667
 30
0.0
 42
-1.0
  0
VERTEX
  8
0
 10
84.9
 20
30.666667
 30
0.0
 42
-1.0
  0
SEQEND
  8
0
  0
POLYLINE
  8
0
 62
0
 70
1
 66
1
 10
0.0
 20
0.0
 30
0.0
  0
VERTEX
  8
0
 10
84.845299
 20
28.666667
 30
0.0
  0
VERTEX
  8
0
 10
87.154701
 20
28.666667
 30
0.0
  0
VERTEX
  8
0
 10
88.309401
 20
30.666667
 30
0.0
  0
VERTEX
  8
0
 10
87.154701
 20
32.666667
 30
0.0
  0
VERTEX
  8
0
 10
84.845299
 20
32.666667
 30
0.0
  0
VERTEX
  8
0
 10
83.690599
 20
30.666667
 30
0.0
  0
SEQEND
  8
0
  0
POLYLINE
  8
0
 62
0
 70
1
 66
1
 10
0.0
 20
0.0
 30
0.0
  0
VERTEX
  8
0
 10
65.154701
 20
109.666667
 30
0.0
  0
VERTEX
  8
0
 10
62.845299
 20
109.666667
 30
0.0
  0
VERTEX
  8
0
 10
61.690599
 20
107.666667
 30
0.0
  0
VERTEX
  8
0
 10
62.845299
 20
105.666667
 30
0.0
  0
VERTEX
  8
0
 10
65.154701
 20
105.666667
 30
0.0
  0
VERTEX
  8
0
 10
66.309401
 20
107.666667
 30
0.0
  0
SEQEND
  8
0
  0
POLYLINE
  8
0
 62
0
 70
1
 66
1
 10
0.0
 20
0.0
 30
0.0
  0
VERTEX
  8
0
 10
62.845299
 20
28.666667
 30
0.0
  0
VERTEX
  8
0
 10
65.154701
 20
28.666667
 30
0.0
  0
VERTEX
  8
0
 10
66.309401
 20
30.666667
 30
0.0
  0
VERTEX
  8
0
 10
65.154701
 20
32.666667
 30
0.0
  0
VERTEX
  8
0
 10
62.845299
 20
32.666667
 30
0.0
  0
VERTEX
  8
0
 10
61.690599
 20
30.666667
 30
0.0
  0
SEQEND
  8
0
  0
POLYLINE
  8
0
 62
0
 70
1
 66
1
 10
0.0
 20
0.0
 30
0.0
  0
VERTEX
  8
0
 10
64.0
 20
89.316667
 30
0.0
 42
0.414214
  0
VERTEX
  8
0
 10
65.1
 20
90.416667
 30
0.0
  0
VERTEX
  8
0
 10
65.1
 20
96.216667
 30
0.0
 42
0.414214
  0
VERTEX
  8
0
 10
64.0
 20
97.316667
 30
0.0
 42
0.414214
  0
VERTEX
  8
0
 10
62.9
 20
96.216667
 30
0.0
  0
VERTEX
  8
0
 10
62.9
 20
90.416667
 30
0.0
 42
0.414214
  0
SEQEND
  8
0
  0
POLYLINE
  8
0
 62
0
 70
1
 66
1
 10
0.0
 20
0.0
 30
0.0
  0
VERTEX
  8
0
 10
64.0
 20
65.166667
 30
0.0
 42
0.414214
  0
VERTEX
  8
0
 10
65.1
 20
66.266667
 30
0.0
  0
VERTEX
  8
0
 10
65.1
 20
72.066667
 30
0.0
 42
0.414214
  0
VERTEX
  8
0
 10
64.0
 20
73.166667
 30
0.0
 42
0.414214
  0
VERTEX
  8
0
 10
62.9
 20
72.066667
 30
0.0
  0
VERTEX
  8
0
 10
62.9
 20
66.266667
 30
0.0
 42
0.414214
  0
SEQEND
  8
0
  0
POLYLINE
  8
0
 62
0
 70
1
 66
1
 10
0.0
 20
0.0
 30
0.0
  0
VERTEX
  8
0
 10
76.160898
 20
97.219151
 30
0.0
 42
0.414214
  0
VERTEX
  8
0
 10
76.563526
 20
95.716523
 30
0.0
  0
VERTEX
  8
0
 10
81.586474
 20
92.816523
 30
0.0
 42
0.414214
  0
VERTEX
  8
0
 10
83.089102
 20
93.219151
 30
0.0
 42
0.414214
  0
VERTEX
  8
0
 10
82.686474
 20
94.721779
 30
0.0
  0
VERTEX
  8
0
 10
77.663526
 20
97.621779
 30
0.0
 42
0.414214
  0
SEQEND
  8
0
  0
POLYLINE
  8
0
 62
0
 70
1
 66
1
 10
0.0
 20
0.0
 30
0.0
  0
VERTEX
  8
0
 10
86.086219
 20
43.166667
 30
0.0
  0
VERTEX
  8
0
 10
86.086219
 20
59.582113
 30
0.0
 42
0.781286
  0
VERTEX
  8
0
 10
82.320324
 20
60.521056
 30
0.0
  0
VERTEX
  8
0
 10
77.9562
 20
52.313333
 30
0.0
 42
0.249328
  0
VERTEX
  8
0
 10
77.9562
 20
50.435447
 30
0.0
  0
VERTEX
  8
0
 10
82.320324
 20
42.227724
 30
0.0
 42
0.781286
  0
SEQEND
  8
0
  0
POLYLINE
  8
0
 62
0
 70
1
 66
1
 10
0.0
 20
0.0
 30
0.0
  0
VERTEX
  8
0
 10
76.765895
 20
55.668208
 30
0.0
  0
VERTEX
  8
0
 10
81.08286
 20
63.787239
 30
0.0
 42
0.565773
  0
VERTEX
  8
0
 10
79.316965
 20
66.726182
 30
0.0
  0
VERTEX
  8
0
 10
70.683035
 20
66.726182
 30
0.0
 42
0.565773
  0
VERTEX
  8
0
 10
68.91714
 20
63.787239
 30
0.0
  0
VERTEX
  8
0
 10
73.234105
 20
55.668208
 30
0.0
 42
0.600861
  0
SEQEND
  8
0
  0
POLYLINE
  8
0
 62
0
 70
1
 66
1
 10
0.0
 20
0.0
 30
0.0
  0
VERTEX
  8
0
 10
80.5
 20
37.675
 30
0.0
 42
-1.0
  0
VERTEX
  8
0
 10
83.5
 20
37.675
 30
0.0
 42
-1.0
  0
SEQEND
  8
0
  0
POLYLINE
  8
0
 62
0
 70
1
 66
1
 10
0.0
 20
0.0
 30
0.0
  0
VERTEX
  8
0
 10
63.913781
 20
59.582155
 30
0.0
  0
VERTEX
  8
0
 10
63.913781
 20
43.166709
 30
0.0
 42
0.781286
  0
VERTEX
  8
0
 10
67.679676
 20
42.227766
 30
0.0
  0
VERTEX
  8
0
 10
72.0438
 20
50.435489
 30
0.0
 42
0.249328
  0
VERTEX
  8
0
 10
72.0438
 20
52.313375
 30
0.0
  0
VERTEX
  8
0
 10
67.679676
 20
60.521098
 30
0.0
 42
0.781286
  0
SEQEND
  8
0
  0
POLYLINE
  8
0
 62
0
 70
1
 66
1
 10
0.0
 20
0.0
 30
0.0
  0
VERTEX
  8
0
 10
73.839102
 20
97.219151
 30
0.0
 42
-0.414214
  0
VERTEX
  8
0
 10
73.436474
 20
95.716523
 30
0.0
  0
VERTEX
  8
0
 10
68.413526
 20
92.816523
 30
0.0
 42
-0.414214
  0
VERTEX
  8
0
 10
66.910898
 20
93.219151
 30
0.0
 42
-0.414214
  0
VERTEX
  8
0
 10
67.313526
 20
94.721779
 30
0.0
  0
VERTEX
  8
0
 10
72.336474
 20
97.621779
 30
0.0
 42
-0.414214
  0
SEQEND
  8
0
  0
POLYLINE
  8
0
 62
0
 70
1
 66
1
 10
0.0
 20
0.0
 30
0.0
  0
VERTEX
  8
0
 10
73.5
 20
45.675
 30
0.0
 42
-1.0
  0
VERTEX
  8
0
 10
76.5
 20
45.675
 30
0.0
 42
-1.0
  0
SEQEND
  8
0
  0
POLYLINE
  8
0
 62
0
 70
1
 66
1
 10
0.0
 20
0.0
 30
0.0
  0
VERTEX
  8
0
 10
73.839102
 20
88.016667
 30
0.0
 42
-0.414214
  0
VERTEX
  8
0
 10
73.436474
 20
86.514039
 30
0.0
  0
VERTEX
  8
0
 10
68.413526
 20
83.614039
 30
0.0
 42
-0.414214
  0
VERTEX
  8
0
 10
66.910898
 20
84.016667
 30
0.0
 42
-0.414214
  0
VERTEX
  8
0
 10
67.313526
 20
85.519295
 30
0.0
  0
VERTEX
  8
0
 10
72.336474
 20
88.419295
 30
0.0
 42
-0.414214
  0
SEQEND
  8
0
  0
POLYLINE
  8
0
 62
0
 70
1
 66
1
 10
0.0
 20
0.0
 30
0.0
  0
VERTEX
  8
0
 10
76.160898
 20
83.419151
 30
0.0
 42
0.414214
  0
VERTEX
  8
0
 10
76.563526
 20
81.916523
 30
0.0
  0
VERTEX
  8
0
 10
81.586474
 20
79.016523
 30
0.0
 42
0.414214
  0
VERTEX
  8
0
 10
83.089102
 20
79.419151
 30
0.0
 42
0.414214
  0
VERTEX
  8
0
 10
82.686474
 20
80.921779
 30
0.0
  0
VERTEX
  8
0
 10
77.663526
 20
83.821779
 30
0.0
 42
0.414214
  0
SEQEND
  8
0
  0
POLYLINE
  8
0
 62
0
 70
1
 66
1
 10
0.0
 20
0.0
 30
0.0
  0
VERTEX
  8
0
 10
66.5
 20
37.675
 30
0.0
 42
-1.0
  0
VERTEX
  8
0
 10
69.5
 20
37.675
 30
0.0
 42
-1.0
  0
SEQEND
  8
0
  0
POLYLINE
  8
0
 62
0
 70
1
 66
1
 10
0.0
 20
0.0
 30
0.0
  0
VERTEX
  8
0
 10
76.160898
 20
92.621635
 30
0.0
 42
0.414214
  0
VERTEX
  8
0
 10
76.563526
 20
91.119007
 30
0.0
  0
VERTEX
  8
0
 10
81.586474
 20
88.219007
 30
0.0
 42
0.414214
  0
VERTEX
  8
0
 10
83.089102
 20
88.621635
 30
0.0
 42
0.414214
  0
VERTEX
  8
0
 10
82.686474
 20
90.124263
 30
0.0
  0
VERTEX
  8
0
 10
77.663526
 20
93.024263
 30
0.0
 42
0.414214
  0
SEQEND
  8
0
  0
POLYLINE
  8
0
 62
0
 70
1
 66
1
 10
0.0
 20
0.0
 30
0.0
  0
VERTEX
  8
0
 10
66.904737
 20
29.9167
 30
0.0
 42
-0.341999
  0
VERTEX
  8
0
 10
67.872983
 20
30.6667
 30
0.0
 42
0.021924
  0
VERTEX
  8
0
 10
68.016284
 20
30.672886
 30
0.0
 42
0.268792
  0
VERTEX
  8
0
 10
69.373762
 20
31.625545
 30
0.0
 42
0.0216869999999
  0
VERTEX
  8
0
 10
69.428327
 20
31.758162
 30
0.0
  0
VERTEX
  8
0
 10
72.178777
 20
39.364585
 30
0.0
 42
-0.094115
  0
VERTEX
  8
0
 10
72.749188
 20
40.327831
 30
0.0
 42
-0.215357
  0
VERTEX
  8
0
 10
73.499459
 20
40.6667
 30
0.0
  0
VERTEX
  8
0
 10
76.500541
 20
40.6667
 30
0.0
 42
-0.215357
  0
VERTEX
  8
0
 10
77.250812
 20
40.327831
 30
0.0
 42
-0.094115
  0
VERTEX
  8
0
 10
77.821223
 20
39.364585
 30
0.0
  0
VERTEX
  8
0
 10
80.571673
 20
31.758196
 30
0.0
 42
0.0216960000001
  0
VERTEX
  8
0
 10
80.626263
 20
31.625524
 30
0.0
 42
0.268783
  0
VERTEX
  8
0
 10
81.983721
 20
30.672919
 30
0.0
 42
0.021691
  0
VERTEX
  8
0
 10
82.127017
 20
30.6667
 30
0.0
 42
-0.341999
  0
VERTEX
  8
0
 10
83.095263
 20
29.9167
 30
0.0
 42
0.881018
  0
VERTEX
  8
0
 10
89.0
 20
30.6667
 30
0.0
  0
VERTEX
  8
0
 10
89.0
 20
39.6667
 30
0.0
  0
VERTEX
  8
0
 10
89.0
 20
40.166667
 30
0.0
 42
-0.414214
  0
VERTEX
  8
0
 10
89.5
 20
40.666667
 30
0.0
  0
VERTEX
  8
0
 10
90.0
 20
40.666683
 30
0.0
 42
0.414214
  0
VERTEX
  8
0
 10
92.0
 20
42.6667
 30
0.0
  0
VERTEX
  8
0
 10
92.0
 20
48.666683
 30
0.0
 42
0.414214
  0
VERTEX
  8
0
 10
91.0
 20
49.666667
 30
0.0
 42
-0.414214
  0
VERTEX
  8
0
 10
90.0
 20
50.666667
 30
0.0
  0
VERTEX
  8
0
 10
90.0
 20
70.6667
 30
0.0
 42
-0.414214
  0
VERTEX
  8
0
 10
91.0
 20
71.6667
 30
0.0
 42
0.414214
  0
VERTEX
  8
0
 10
92.0
 20
72.6667
 30
0.0
  0
VERTEX
  8
0
 10
92.0
 20
78.666684
 30
0.0
 42
0.414214
  0
VERTEX
  8
0
 10
90.0
 20
80.666667
 30
0.0
  0
VERTEX
  8
0
 10
89.5
 20
80.6667
 30
0.0
 42
-0.414214
  0
VERTEX
  8
0
 10
89.0
 20
81.1667
 30
0.0
  0
VERTEX
  8
0
 10
89.0
 20
81.666667
 30
0.0
  0
VERTEX
  8
0
 10
89.0
 20
107.666684
 30
0.0
 42
1.0
  0
VERTEX
  8
0
 10
83.0
 20
107.666667
 30
0.0
 42
-0.085115
  0
VERTEX
  8
0
 10
82.542994
 20
105.001476
 30
0.0
 42
-0.00394500000006
  0
VERTEX
  8
0
 10
82.5
 20
104.882784
 30
0.0
  0
VERTEX
  8
0
 10
82.5
 20
103.666667
 30
0.0
  0
VERTEX
  8
0
 10
82.5
 20
102.274759
 30
0.0
 42
-0.414214
  0
VERTEX
  8
0
 10
79.891941
 20
99.6667
 30
0.0
  0
VERTEX
  8
0
 10
78.51633
 20
99.6667
 30
0.0
  0
VERTEX
  8
0
 10
71.5
 20
99.666667
 30
0.0
  0
VERTEX
  8
0
 10
70.108059
 20
99.666667
 30
0.0
 42
-0.414214
  0
VERTEX
  8
0
 10
67.5
 20
102.274726
 30
0.0
  0
VERTEX
  8
0
 10
67.5
 20
103.6667
 30
0.0
  0
VERTEX
  8
0
 10
67.5
 20
104.882818
 30
0.0
 42
-0.00403599999992
  0
VERTEX
  8
0
 10
67.457006
 20
105.001476
 30
0.0
 42
-0.085115
  0
VERTEX
  8
0
 10
67.0
 20
107.666667
 30
0.0
 42
1.0
  0
VERTEX
  8
0
 10
61.0
 20
107.666667
 30
0.0
  0
VERTEX
  8
0
 10
61.0
 20
81.6667
 30
0.0
  0
VERTEX
  8
0
 10
61.0
 20
81.166667
 30
0.0
 42
-0.414214
  0
VERTEX
  8
0
 10
60.5
 20
80.666667
 30
0.0
  0
VERTEX
  8
0
 10
60.0
 20
80.666667
 30
0.0
 42
0.414214
  0
VERTEX
  8
0
 10
58.0
 20
78.666667
 30
0.0
  0
VERTEX
  8
0
 10
58.0
 20
72.6667
 30
0.0
 42
0.414214
  0
VERTEX
  8
0
 10
59.0
 20
71.6667
 30
0.0
 42
-0.414214
  0
VERTEX
  8
0
 10
60.0
 20
70.6667
 30
0.0
  0
VERTEX
  8
0
 10
60.0
 20
50.666683
 30
0.0
 42
-0.414214
  0
VERTEX
  8
0
 10
59.0
 20
49.666667
 30
0.0
 42
0.414214
  0
VERTEX
  8
0
 10
58.0
 20
48.666667
 30
0.0
  0
VERTEX
  8
0
 10
58.0
 20
42.6667
 30
0.0
 42
0.414214
  0
VERTEX
  8
0
 10
60.0
 20
40.6667
 30
0.0
  0
VERTEX
  8
0
 10
60.5
 20
40.6667
 30
0.0
 42
-0.414214
  0
VERTEX
  8
0
 10
61.0
 20
40.1667
 30
0.0
  0
VERTEX
  8
0
 10
61.0
 20
39.666667
 30
0.0
  0
VERTEX
  8
0
 10
61.0
 20
30.6667
 30
0.0
 42
0.881018
  0
SEQEND
  8
0
  0
POLYLINE
  8
0
 62
0
 70
1
 66
1
 10
0.0
 20
0.0
 30
0.0
  0
VERTEX
  8
0
 10
73.839102
 20
92.621635
 30
0.0
 42
-0.414214
  0
VERTEX
  8
0
 10
73.436474
 20
91.119007
 30
0.0
  0
VERTEX
  8
0
 10
68.413526
 20
88.219007
 30
0.0
 42
-0.414214
  0
VERTEX
  8
0
 10
66.910898
 20
88.621635
 30
0.0
 42
-0.414214
  0
VERTEX
  8
0
 10
67.313526
 20
90.124263
 30
0.0
  0
VERTEX
  8
0
 10
72.336474
 20
93.024263
 30
0.0
 42
-0.414214
  0
SEQEND
  8
0
  0
POLYLINE
  8
0
 62
0
 70
1
 66
1
 10
0.0
 20
0.0
 30
0.0
  0
VERTEX
  8
0
 10
76.160898
 20
78.821635
 30
0.0
 42
0.414214
  0
VERTEX
  8
0
 10
76.563526
 20
77.319007
 30
0.0
  0
VERTEX
  8
0
 10
81.586474
 20
74.419007
 30
0.0
 42
0.414214
  0
VERTEX
  8
0
 10
83.089102
 20
74.821635
 30
0.0
 42
0.414214
  0
VERTEX
  8
0
 10
82.686474
 20
76.324263
 30
0.0
  0
VERTEX
  8
0
 10
77.663526
 20
79.224263
 30
0.0
 42
0.414214
  0
SEQEND
  8
0
  0
POLYLINE
  8
0
 62
0
 70
1
 66
1
 10
0.0
 20
0.0
 30
0.0
  0
VERTEX
  8
0
 10
76.160898
 20
88.016667
 30
0.0
 42
0.414214
  0
VERTEX
  8
0
 10
76.563526
 20
86.514039
 30
0.0
  0
VERTEX
  8
0
 10
81.586474
 20
83.614039
 30
0.0
 42
0.414214
  0
VERTEX
  8
0
 10
83.089102
 20
84.016667
 30
0.0
 42
0.414214
  0
VERTEX
  8
0
 10
82.686474
 20
85.519295
 30
0.0
  0
VERTEX
  8
0
 10
77.663526
 20
88.419295
 30
0.0
 42
0.414214
  0
SEQEND
  8
0
  0
ENDSEC
  0
EOF
