  0
SECTION
  2
HEADER
  9
$ACADVER
  1
AC1014
  9
$ACADMAINTVER
 70
     0
  9
$DWGCODEPAGE
  3
ANSI_1252
  9
$INSBASE
 10
0.0
 20
0.0
 30
0.0
  9
$EXTMIN
 10
0.0
 20
0.0
 30
0.0
  9
$EXTMAX
 10
558.8
 20
431.8
 30
0.0
  9
$LIMMIN
 10
0.0
 20
0.0
  9
$LIMMAX
 10
12.0
 20
9.0
  9
$ORTHOMODE
 70
     0
  9
$REGENMODE
 70
     1
  9
$FILLMODE
 70
     0
  9
$QTEXTMODE
 70
     0
  9
$MIRRTEXT
 70
     1
  9
$DRAGMODE
 70
     2
  9
$LTSCALE
 40
5.588
  9
$OSMODE
 70
     0
  9
$ATTMODE
 70
     1
  9
$TEXTSIZE
 40
0.2
  9
$TRACEWID
 40
0.05
  9
$TEXTSTYLE
  7
STANDARD
  9
$CLAYER
  8
0
  9
$CELTYPE
  6
BYLAYER
  9
$CECOLOR
 62
   256
  9
$CELTSCALE
 40
1.0
  9
$DELOBJ
 70
     1
  9
$DISPSILH
 70
     0
  9
$DIMSCALE
 40
1.0
  9
$DIMASZ
 40
0.18
  9
$DIMEXO
 40
0.0625
  9
$DIMDLI
 40
0.38
  9
$DIMRND
 40
0.0
  9
$DIMDLE
 40
0.0
  9
$DIMEXE
 40
0.18
  9
$DIMTP
 40
0.0
  9
$DIMTM
 40
0.0
  9
$DIMTXT
 40
0.18
  9
$DIMCEN
 40
0.09
  9
$DIMTSZ
 40
0.0
  9
$DIMTOL
 70
     0
  9
$DIMLIM
 70
     0
  9
$DIMTIH
 70
     0
  9
$DIMTOH
 70
     0
  9
$DIMSE1
 70
     0
  9
$DIMSE2
 70
     0
  9
$DIMTAD
 70
     1
  9
$DIMZIN
 70
     0
  9
$DIMBLK
  1

  9
$DIMASO
 70
     1
  9
$DIMSHO
 70
     1
  9
$DIMPOST
  1

  9
$DIMAPOST
  1

  9
$DIMALT
 70
     0
  9
$DIMALTD
 70
     2
  9
$DIMALTF
 40
25.4
  9
$DIMLFAC
 40
1.0
  9
$DIMTOFL
 70
     0
  9
$DIMTVP
 40
0.0
  9
$DIMTIX
 70
     0
  9
$DIMSOXD
 70
     0
  9
$DIMSAH
 70
     0
  9
$DIMBLK1
  1

  9
$DIMBLK2
  1

  9
$DIMSTYLE
  2
STANDARD
  9
$DIMCLRD
 70
     0
  9
$DIMCLRE
 70
     0
  9
$DIMCLRT
 70
     0
  9
$DIMTFAC
 40
1.0
  9
$DIMGAP
 40
0.09
  9
$DIMJUST
 70
     0
  9
$DIMSD1
 70
     0
  9
$DIMSD2
 70
     0
  9
$DIMTOLJ
 70
     1
  9
$DIMTZIN
 70
     0
  9
$DIMALTZ
 70
     0
  9
$DIMALTTZ
 70
     0
  9
$DIMFIT
 70
     3
  9
$DIMUPT
 70
     0
  9
$DIMUNIT
 70
     2
  9
$DIMDEC
 70
     2
  9
$DIMTDEC
 70
     4
  9
$DIMALTU
 70
     2
  9
$DIMALTTD
 70
     2
  9
$DIMTXSTY
  7
STANDARD
  9
$DIMAUNIT
 70
     0
  9
$LUNITS
 70
     2
  9
$LUPREC
 70
     4
  9
$SKETCHINC
 40
0.1
  9
$FILLETRAD
 40
0.5
  9
$AUNITS
 70
     0
  9
$AUPREC
 70
     0
  9
$MENU
  1
.
  9
$ELEVATION
 40
0.0
  9
$PELEVATION
 40
0.0
  9
$THICKNESS
 40
0.0
  9
$LIMCHECK
 70
     0
  9
$BLIPMODE
 70
     0
  9
$CHAMFERA
 40
0.5
  9
$CHAMFERB
 40
0.5
  9
$CHAMFERC
 40
1.0
  9
$CHAMFERD
 40
0.0
  9
$SKPOLY
 70
     0
  9
$TDCREATE
 40
2450772.666465926
  9
$TDUPDATE
 40
2458664.120648136
  9
$TDINDWG
 40
0.0011564931
  9
$TDUSRTIMER
 40
0.0000000000
  9
$USRTIMER
 70
     1
  9
$ANGBASE
 50
0.0
  9
$ANGDIR
 70
     0
  9
$PDMODE
 70
     0
  9
$PDSIZE
 40
0.0
  9
$PLINEWID
 40
0.0
  9
$COORDS
 70
     1
  9
$SPLFRAME
 70
     0
  9
$SPLINETYPE
 70
     6
  9
$SPLINESEGS
 70
     8
  9
$ATTDIA
 70
     0
  9
$ATTREQ
 70
     1
  9
$HANDLING
 70
     1
  9
$HANDSEED
  5
302
  9
$SURFTAB1
 70
     6
  9
$SURFTAB2
 70
     6
  9
$SURFTYPE
 70
     6
  9
$SURFU
 70
     6
  9
$SURFV
 70
     6
  9
$UCSNAME
  2

  9
$UCSORG
 10
0.0
 20
0.0
 30
0.0
  9
$UCSXDIR
 10
1.0
 20
0.0
 30
0.0
  9
$UCSYDIR
 10
0.0
 20
1.0
 30
0.0
  9
$PUCSNAME
  2

  9
$PUCSORG
 10
0.0
 20
0.0
 30
0.0
  9
$PUCSXDIR
 10
1.0
 20
0.0
 30
0.0
  9
$PUCSYDIR
 10
0.0
 20
1.0
 30
0.0
  9
$USERI1
 70
     0
  9
$USERI2
 70
     0
  9
$USERI3
 70
     0
  9
$USERI4
 70
     0
  9
$USERI5
 70
     0
  9
$USERR1
 40
0.0
  9
$USERR2
 40
0.0
  9
$USERR3
 40
0.0
  9
$USERR4
 40
0.0
  9
$USERR5
 40
0.0
  9
$WORLDVIEW
 70
     1
  9
$SHADEDGE
 70
     3
  9
$SHADEDIF
 70
    70
  9
$TILEMODE
 70
     1
  9
$MAXACTVP
 70
    48
  9
$PINSBASE
 10
0.0
 20
0.0
 30
0.0
  9
$PLIMCHECK
 70
     0
  9
$PEXTMIN
 10
0.0
 20
0.0
 30
0.0
  9
$PEXTMAX
 10
0.0
 20
0.0
 30
0.0
  9
$PLIMMIN
 10
0.0
 20
0.0
  9
$PLIMMAX
 10
12.0
 20
9.0
  9
$UNITMODE
 70
     0
  9
$VISRETAIN
 70
     1
  9
$PLINEGEN
 70
     0
  9
$PSLTSCALE
 70
     1
  9
$TREEDEPTH
 70
  3020
  9
$PICKSTYLE
 70
     1
  9
$CMLSTYLE
  2
STANDARD
  9
$CMLJUST
 70
     0
  9
$CMLSCALE
 40
1.0
  9
$PROXYGRAPHICS
 70
     1
  9
$MEASUREMENT
 70
     0
  0
ENDSEC
  0
SECTION
  2
CLASSES
  0
CLASS
  1
LWPOLYLINE
  2
AcDbPolyline
  3
"AutoCAD"
 90
        0
280
     0
281
     1
  0
CLASS
  1
IMAGE
  2
AcDbRasterImage
  3
ISM
 90
      127
280
     0
281
     1
  0
CLASS
  1
OLE2FRAME
  2
AcDbOle2Frame
  3
""
 90
        0
280
     0
281
     1
  0
CLASS
  1
HATCH
  2
AcDbHatch
  3
"ACAD_SEDONA"
 90
        0
280
     0
281
     1
  0
CLASS
  1
DICTIONARYVAR
  2
AcDbDictionaryVar
  3
"AutoCAD"
 90
        0
280
     0
281
     0
  0
CLASS
  1
RASTERVARIABLES
  2
AcDbRasterVariables
  3
ISM
 90
        0
280
     0
281
     0
  0
CLASS
  1
IMAGEDEF
  2
AcDbRasterImageDef
  3
ISM
 90
        0
280
     0
281
     0
  0
CLASS
  1
IMAGEDEF_REACTOR
  2
AcDbRasterImageDefReactor
  3
ISM
 90
        1
280
     0
281
     0
  0
CLASS
  1
IDBUFFER
  2
AcDbIdBuffer
  3
"Acad"
 90
        0
280
     0
281
     0
  0
CLASS
  1
SPATIAL_FILTER
  2
AcDbSpatialFilter
  3
"Acad"
 90
        0
280
     0
281
     0
  0
CLASS
  1
XRECORD
  2
AcDbXrecord
  3
"<Built In>"
 90
        0
280
     0
281
     0
  0
CLASS
  1
SORTENTSTABLE
  2
AcDbSortentsTable
  3
"AutoCAD"
 90
        0
280
     0
281
     0
  0
CLASS
  1
LAYER_INDEX
  2
AcDbLayerIndex
  3
"Acad"
 90
        0
280
     0
281
     0
  0
CLASS
  1
SPATIAL_INDEX
  2
AcDbSpatialIndex
  3
"Acad"
 90
        0
280
     0
281
     0
  0
CLASS
  1
OBJECT_PTR
  2
CAseDLPNTableRecord
  3
"ASE-LPNTableRecord"
 90
        1
280
     0
281
     0
  0
CLASS
  1
LAYOUT
  2
AcDbLayout
  3
"AutoCAD 2000"
 90
        1
280
     0
281
     0
  0
CLASS
  1
PLOTSETTINGS
  2
AcDbPlotSettings
  3
"AutoCAD 2000"
 90
        1
280
     0
281
     0
  0
CLASS
  1
ACDBDICTIONARYWDFLT
  2
AcDbDictionaryWithDefault
  3
"AutoCAD 2000"
 90
        1
280
     0
281
     0
  0
CLASS
  1
ACDBPLACEHOLDER
  2
AcDbPlaceHolder
  3
"AutoCAD 2000"
 90
        1
280
     0
281
     0
  0
CLASS
  1
VBA_PROJECT
  2
AcDbVbaProject
  3
"acadvba"
 90
        1
280
     0
281
     0
  0
CLASS
  1
WIPEOUT
  2
AcDbWipeout
  3
WipeOut|AutoCAD Express Tool|expresstools@autodesk.com
 90
      127
280
     0
281
     1
  0
CLASS
  1
WIPEOUTVARIABLES
  2
AcDbWipeoutVariables
  3
WipeOut|AutoCAD Express Tool|expresstools@autodesk.com
 90
        0
280
     0
281
     0
  0
CLASS
  1
RTEXT
  2
RText
  3
RText|AutoCAD Express Tool|expresstools@autodesk.com
 90
        0
280
     0
281
     1
  0
CLASS
  1
ARCALIGNEDTEXT
  2
AcDbArcAlignedText
  3
ATEXT|AutoCAD Express Tool|expresstools@autodesk.com
 90
        0
280
     0
281
     1
  0
ENDSEC
  0
SECTION
  2
TABLES
  0
TABLE
  2
VPORT
  5
8
100
AcDbSymbolTable
 70
     1
  0
VPORT
  5
25
100
AcDbSymbolTableRecord
100
AcDbViewportTableRecord
  2
*ACTIVE
 70
     0
 10
0.0
 20
0.0
 11
1.0
 21
1.0
 12
279.4
 22
215.9
 13
0.0
 23
0.0
 14
0.5
 24
0.5
 15
0.5
 25
0.5
 16
0.0
 26
0.0
 36
1.0
 17
0.0
 27
0.0
 37
0.0
 40
431.8
 41
1.294118
 42
50.0
 43
0.0
 44
0.0
 50
0.0
 51
0.0
 71
     0
 72
   100
 73
     1
 74
     1
 75
     0
 76
     0
 77
     0
 78
     0
  0
ENDTAB
  0
TABLE
  2
LTYPE
  5
5
100
AcDbSymbolTable
 70
     7
  0
LTYPE
  5
12
100
AcDbSymbolTableRecord
100
AcDbLinetypeTableRecord
  2
BYBLOCK
 70
    64
  3

 72
    65
 73
     0
 40
0.0
  0
LTYPE
  5
13
100
AcDbSymbolTableRecord
100
AcDbLinetypeTableRecord
  2
BYLAYER
 70
    64
  3

 72
    65
 73
     0
 40
0.0
  0
LTYPE
  5
14
100
AcDbSymbolTableRecord
100
AcDbLinetypeTableRecord
  2
CONTINUOUS
 70
     0
  3
Solid line
 72
    65
 73
     0
 40
0.0
  0
LTYPE
  5
FB
100
AcDbSymbolTableRecord
100
AcDbLinetypeTableRecord
  2
DASHDOT
 70
     0
  3
DASHDOT
 72
    65
 73
     4
 40
1.0
 49
0.5
 74
     0
 49
-0.25
 74
     0
 49
0.0
 74
     0
 49
-0.25
 74
     0
  0
LTYPE
  5
157
100
AcDbSymbolTableRecord
100
AcDbLinetypeTableRecord
  2
DASHEDX2
 70
     0
  3
DASHEDX2
 72
    65
 73
     2
 40
1.25
 49
0.75
 74
     0
 49
-0.5
 74
     0
  0
LTYPE
  5
1BB
100
AcDbSymbolTableRecord
100
AcDbLinetypeTableRecord
  2
DOT
 70
     0
  3
DOT
 72
    65
 73
     2
 40
0.25
 49
0.0
 74
     0
 49
-0.25
 74
     0
  0
LTYPE
  5
27F
100
AcDbSymbolTableRecord
100
AcDbLinetypeTableRecord
  2
DASHED
 70
     0
  3
DASHED
 72
    65
 73
     2
 40
0.75
 49
0.5
 74
     0
 49
-0.25
 74
     0
  0
ENDTAB
  0
TABLE
  2
LAYER
  5
2
100
AcDbSymbolTable
 70
     1
  0
LAYER
  5
E
100
AcDbSymbolTableRecord
100
AcDbLayerTableRecord
  2
0
 70
     0
 62
     7
  6
CONTINUOUS
  0
ENDTAB
  0
TABLE
  2
STYLE
  5
3
100
AcDbSymbolTable
 70
     1
  0
STYLE
  5
F
100
AcDbSymbolTableRecord
100
AcDbTextStyleTableRecord
  2
STANDARD
 70
     0
 40
0.0
 41
1.0
 50
0.0
 71
     0
 42
0.2
  3
txt.shx
  4

  0
ENDTAB
  0
TABLE
  2
VIEW
  5
6
100
AcDbSymbolTable
 70
     0
  0
ENDTAB
  0
TABLE
  2
UCS
  5
7
100
AcDbSymbolTable
 70
     0
  0
ENDTAB
  0
TABLE
  2
APPID
  5
9
100
AcDbSymbolTable
 70
     1
  0
APPID
  5
10
100
AcDbSymbolTableRecord
100
AcDbRegAppTableRecord
  2
ACAD
 70
     0
  0
ENDTAB
  0
TABLE
  2
DIMSTYLE
  5
A
100
AcDbSymbolTable
 70
     1
  0
DIMSTYLE
105
1D
100
AcDbSymbolTableRecord
100
AcDbDimStyleTableRecord
  2
STANDARD
 70
     0
  3

  4

  5

  6

  7

 40
1.0
 41
0.18
 42
0.0625
 43
0.38
 44
0.18
 45
0.0
 46
0.0
 47
0.0
 48
0.0
 71
     0
 72
     0
 73
     1
 74
     1
 75
     0
 76
     0
 77
     0
 78
     0
140
0.18
141
0.09
142
0.0
143
25.4
144
1.0
145
0.0
146
1.0
147
0.09
170
     0
171
     2
172
     0
173
     0
174
     0
175
     0
176
     0
177
     0
178
     0
270
     2
271
     4
272
     4
273
     2
274
     2
275
     0
280
     0
281
     0
282
     0
283
     1
284
     0
285
     0
286
     0
287
     3
288
     0
340
F
  0
ENDTAB
  0
TABLE
  2
BLOCK_RECORD
  5
1
100
AcDbSymbolTable
 70
    62
  0
BLOCK_RECORD
  5
18
100
AcDbSymbolTableRecord
100
AcDbBlockTableRecord
  2
*MODEL_SPACE
  0
BLOCK_RECORD
  5
15
100
AcDbSymbolTableRecord
100
AcDbBlockTableRecord
  2
*PAPER_SPACE
  0
BLOCK_RECORD
  5
3E
100
AcDbSymbolTableRecord
100
AcDbBlockTableRecord
  2
SMARTCARD__SICH__ID-KTE
  0
BLOCK_RECORD
  5
41
100
AcDbSymbolTableRecord
100
AcDbBlockTableRecord
  2
TELEARBEITER-_HAUS
  0
BLOCK_RECORD
  5
44
100
AcDbSymbolTableRecord
100
AcDbBlockTableRecord
  2
HEIMB\U+00FCRO
  0
BLOCK_RECORD
  5
47
100
AcDbSymbolTableRecord
100
AcDbBlockTableRecord
  2
WOLKE
  0
BLOCK_RECORD
  5
4A
100
AcDbSymbolTableRecord
100
AcDbBlockTableRecord
  2
DF\U+00DC-_VERBINDUNG
  0
BLOCK_RECORD
  5
4F
100
AcDbSymbolTableRecord
100
AcDbBlockTableRecord
  2
LAPTOP
  0
BLOCK_RECORD
  5
6A
100
AcDbSymbolTableRecord
100
AcDbBlockTableRecord
  2
2D-DOPPEL
  0
BLOCK_RECORD
  5
6E
100
AcDbSymbolTableRecord
100
AcDbBlockTableRecord
  2
KREIS
  0
BLOCK_RECORD
  5
77
100
AcDbSymbolTableRecord
100
AcDbBlockTableRecord
  2
HORIZONTALER_BALKEN
  0
BLOCK_RECORD
  5
7F
100
AcDbSymbolTableRecord
100
AcDbBlockTableRecord
  2
MODEM-BANK
  0
BLOCK_RECORD
  5
82
100
AcDbSymbolTableRecord
100
AcDbBlockTableRecord
  2
KABELMODEMS
  0
BLOCK_RECORD
  5
85
100
AcDbSymbolTableRecord
100
AcDbBlockTableRecord
  2
SENDETURM
  0
BLOCK_RECORD
  5
9D
100
AcDbSymbolTableRecord
100
AcDbBlockTableRecord
  2
ORT
  0
BLOCK_RECORD
  5
D7
100
AcDbSymbolTableRecord
100
AcDbBlockTableRecord
  2
FELD
  0
BLOCK_RECORD
  5
DB
100
AcDbSymbolTableRecord
100
AcDbBlockTableRecord
  2
MASTER_17
  0
BLOCK_RECORD
  5
E1
100
AcDbSymbolTableRecord
100
AcDbBlockTableRecord
  2
MASTER_18
  0
BLOCK_RECORD
  5
E9
100
AcDbSymbolTableRecord
100
AcDbBlockTableRecord
  2
MASTER_19
  0
BLOCK_RECORD
  5
ED
100
AcDbSymbolTableRecord
100
AcDbBlockTableRecord
  2
MASTER_20
  0
BLOCK_RECORD
  5
F1
100
AcDbSymbolTableRecord
100
AcDbBlockTableRecord
  2
MA\U+00DF
  0
BLOCK_RECORD
  5
F9
100
AcDbSymbolTableRecord
100
AcDbBlockTableRecord
  2
M-LINIE
  0
BLOCK_RECORD
  5
FE
100
AcDbSymbolTableRecord
100
AcDbBlockTableRecord
  2
BOHRKREIS
  0
BLOCK_RECORD
  5
103
100
AcDbSymbolTableRecord
100
AcDbBlockTableRecord
  2
MATRIX
  0
BLOCK_RECORD
  5
128
100
AcDbSymbolTableRecord
100
AcDbBlockTableRecord
  2
BOHRUNG2
  0
BLOCK_RECORD
  5
130
100
AcDbSymbolTableRecord
100
AcDbBlockTableRecord
  2
TRENNER
  0
BLOCK_RECORD
  5
134
100
AcDbSymbolTableRecord
100
AcDbBlockTableRecord
  2
KREIS_27
  0
BLOCK_RECORD
  5
13B
100
AcDbSymbolTableRecord
100
AcDbBlockTableRecord
  2
BOHRUNG
  0
BLOCK_RECORD
  5
140
100
AcDbSymbolTableRecord
100
AcDbBlockTableRecord
  2
TEXT
  0
BLOCK_RECORD
  5
149
100
AcDbSymbolTableRecord
100
AcDbBlockTableRecord
  2
MASTER_30
  0
BLOCK_RECORD
  5
14D
100
AcDbSymbolTableRecord
100
AcDbBlockTableRecord
  2
MASTER_31
  0
BLOCK_RECORD
  5
151
100
AcDbSymbolTableRecord
100
AcDbBlockTableRecord
  2
MASTER_32
  0
BLOCK_RECORD
  5
155
100
AcDbSymbolTableRecord
100
AcDbBlockTableRecord
  2
P-LINIE
  0
BLOCK_RECORD
  5
15A
100
AcDbSymbolTableRecord
100
AcDbBlockTableRecord
  2
MASTER_34
  0
BLOCK_RECORD
  5
15E
100
AcDbSymbolTableRecord
100
AcDbBlockTableRecord
  2
RECTANGLE_153
  0
BLOCK_RECORD
  5
162
100
AcDbSymbolTableRecord
100
AcDbBlockTableRecord
  2
CIRCLE_168
  0
BLOCK_RECORD
  5
166
100
AcDbSymbolTableRecord
100
AcDbBlockTableRecord
  2
MASTER_37
  0
BLOCK_RECORD
  5
16A
100
AcDbSymbolTableRecord
100
AcDbBlockTableRecord
  2
M-LINIE_193
  0
BLOCK_RECORD
  5
16E
100
AcDbSymbolTableRecord
100
AcDbBlockTableRecord
  2
FLEX
  0
BLOCK_RECORD
  5
176
100
AcDbSymbolTableRecord
100
AcDbBlockTableRecord
  2
MASTER_40
  0
BLOCK_RECORD
  5
19B
100
AcDbSymbolTableRecord
100
AcDbBlockTableRecord
  2
MASTER_41
  0
BLOCK_RECORD
  5
1A0
100
AcDbSymbolTableRecord
100
AcDbBlockTableRecord
  2
MASTER_42
  0
BLOCK_RECORD
  5
1A8
100
AcDbSymbolTableRecord
100
AcDbBlockTableRecord
  2
MASTER_43
  0
BLOCK_RECORD
  5
1B4
100
AcDbSymbolTableRecord
100
AcDbBlockTableRecord
  2
FLACHKOPF_OBEN
  0
BLOCK_RECORD
  5
1BF
100
AcDbSymbolTableRecord
100
AcDbBlockTableRecord
  2
MASTER_45
  0
BLOCK_RECORD
  5
1C3
100
AcDbSymbolTableRecord
100
AcDbBlockTableRecord
  2
ACHTECK
  0
BLOCK_RECORD
  5
1C7
100
AcDbSymbolTableRecord
100
AcDbBlockTableRecord
  2
MASTER_47
  0
BLOCK_RECORD
  5
21D
100
AcDbSymbolTableRecord
100
AcDbBlockTableRecord
  2
MASTER_48
  0
BLOCK_RECORD
  5
232
100
AcDbSymbolTableRecord
100
AcDbBlockTableRecord
  2
SUBTITLE
  0
BLOCK_RECORD
  5
236
100
AcDbSymbolTableRecord
100
AcDbBlockTableRecord
  2
RAHMEN
  0
BLOCK_RECORD
  5
25B
100
AcDbSymbolTableRecord
100
AcDbBlockTableRecord
  2
MASTER_51
  0
BLOCK_RECORD
  5
25F
100
AcDbSymbolTableRecord
100
AcDbBlockTableRecord
  2
TITLE
  0
BLOCK_RECORD
  5
263
100
AcDbSymbolTableRecord
100
AcDbBlockTableRecord
  2
DESCRIPTION
  0
BLOCK_RECORD
  5
267
100
AcDbSymbolTableRecord
100
AcDbBlockTableRecord
  2
MASTER_54
  0
BLOCK_RECORD
  5
26F
100
AcDbSymbolTableRecord
100
AcDbBlockTableRecord
  2
MASTER_55
  0
BLOCK_RECORD
  5
27C
100
AcDbSymbolTableRecord
100
AcDbBlockTableRecord
  2
MASTER_56
  0
BLOCK_RECORD
  5
282
100
AcDbSymbolTableRecord
100
AcDbBlockTableRecord
  2
MASTER_57
  0
BLOCK_RECORD
  5
288
100
AcDbSymbolTableRecord
100
AcDbBlockTableRecord
  2
SCREWS
  0
BLOCK_RECORD
  5
2DE
100
AcDbSymbolTableRecord
100
AcDbBlockTableRecord
  2
GEWINDE
  0
BLOCK_RECORD
  5
2E3
100
AcDbSymbolTableRecord
100
AcDbBlockTableRecord
  2
MULTI
  0
BLOCK_RECORD
  5
2EB
100
AcDbSymbolTableRecord
100
AcDbBlockTableRecord
  2
MASTER_61
  0
BLOCK_RECORD
  5
2F0
100
AcDbSymbolTableRecord
100
AcDbBlockTableRecord
  2
MASTER_62
  0
BLOCK_RECORD
  5
2F5
100
AcDbSymbolTableRecord
100
AcDbBlockTableRecord
  2
FLACHKOPF__SCHLITZ_
  0
BLOCK_RECORD
  5
2FE
100
AcDbSymbolTableRecord
100
AcDbBlockTableRecord
  2
MASTER_64
  0
ENDTAB
  0
ENDSEC
  0
SECTION
  2
BLOCKS
  0
BLOCK
  5
19
100
AcDbEntity
  8
0
100
AcDbBlockBegin
  2
*MODEL_SPACE
 70
     0
 10
0.0
 20
0.0
 30
0.0
  3
*MODEL_SPACE
  1

  0
ENDBLK
  5
1A
100
AcDbEntity
  8
0
100
AcDbBlockEnd
  0
BLOCK
  5
16
100
AcDbEntity
 67
     1
  8
0
100
AcDbBlockBegin
  2
*PAPER_SPACE
 70
     0
 10
0.0
 20
0.0
 30
0.0
  3
*PAPER_SPACE
  1

  0
ENDBLK
  5
17
100
AcDbEntity
 67
     1
  8
0
100
AcDbBlockEnd
  0
BLOCK
  5
3F
100
AcDbEntity
  8
0
100
AcDbBlockBegin
  2
SMARTCARD__SICH__ID-KTE
 70
     0
 10
0.0
 20
0.0
 30
0.0
  3
SMARTCARD__SICH__ID-KTE
  1

  0
ENDBLK
  5
40
100
AcDbEntity
  8
0
100
AcDbBlockEnd
  0
BLOCK
  5
42
100
AcDbEntity
  8
0
100
AcDbBlockBegin
  2
TELEARBEITER-_HAUS
 70
     0
 10
0.0
 20
0.0
 30
0.0
  3
TELEARBEITER-_HAUS
  1

  0
ENDBLK
  5
43
100
AcDbEntity
  8
0
100
AcDbBlockEnd
  0
BLOCK
  5
45
100
AcDbEntity
  8
0
100
AcDbBlockBegin
  2
HEIMB\U+00FCRO
 70
     0
 10
0.0
 20
0.0
 30
0.0
  3
HEIMB\U+00FCRO
  1

  0
ENDBLK
  5
46
100
AcDbEntity
  8
0
100
AcDbBlockEnd
  0
BLOCK
  5
48
100
AcDbEntity
  8
0
100
AcDbBlockBegin
  2
WOLKE
 70
     0
 10
0.0
 20
0.0
 30
0.0
  3
WOLKE
  1

  0
ENDBLK
  5
49
100
AcDbEntity
  8
0
100
AcDbBlockEnd
  0
BLOCK
  5
4B
100
AcDbEntity
  8
0
100
AcDbBlockBegin
  2
DF\U+00DC-_VERBINDUNG
 70
     0
 10
0.0
 20
0.0
 30
0.0
  3
DF\U+00DC-_VERBINDUNG
  1

  0
LWPOLYLINE
  5
4C
102
{ACAD_REACTORS
330
4D
102
}
100
AcDbEntity
  8
0
  6
CONTINUOUS
 62
     7
100
AcDbPolyline
 90
        6
 70
     1
 10
0.169333
 20
9.553222
 10
16.044333
 20
12.728222
 10
13.663083
 20
8.283222
 10
25.569333
 20
9.553222
 10
9.694333
 20
6.378222
 10
12.075583
 20
10.823222
  0
HATCH
  5
4D
100
AcDbEntity
  8
0
 62
     2
100
AcDbHatch
 10
0.0
 20
0.0
 30
0.0
210
0.0
220
0.0
230
1.0
  2
SOLID
 70
     1
 71
     1
 91
        1
 92
        3
 72
     0
 73
     1
 93
        6
 10
0.1693333333333344
 20
9.5532222222222192
 10
16.044333333333334
 20
12.72822222222222
 10
13.663083333333333
 20
8.283222222222216
 10
25.569333333333336
 20
9.5532222222222192
 10
9.6943333333333346
 20
6.3782222222222194
 10
12.075583333333334
 20
10.823222222222219
 97
       13
330
32
330
33
330
34
330
35
330
36
330
37
330
38
330
39
330
3A
330
3B
330
3C
330
3D
330
4C
 75
     0
 76
     1
 98
        0
  0
ENDBLK
  5
4E
100
AcDbEntity
  8
0
100
AcDbBlockEnd
  0
BLOCK
  5
50
100
AcDbEntity
  8
0
100
AcDbBlockBegin
  2
LAPTOP
 70
     2
 10
0.0
 20
0.0
 30
0.0
  3
LAPTOP
  1

  0
ATTDEF
  5
51
100
AcDbEntity
  8
0
100
AcDbText
 10
15.0
 20
10.0
 30
0.0
 40
0.2
  1

100
AcDbAttributeDefinition
  3
Hersteller
  2
MANUFACTURER
 70
     0
  0
ATTDEF
  5
52
100
AcDbEntity
  8
0
100
AcDbText
 10
15.0
 20
10.0
 30
0.0
 40
0.2
  1

100
AcDbAttributeDefinition
  3
Produktnummer
  2
PRODUCTNUMBER
 70
     0
  0
ATTDEF
  5
53
100
AcDbEntity
  8
0
100
AcDbText
 10
15.0
 20
10.0
 30
0.0
 40
0.2
  1

100
AcDbAttributeDefinition
  3
Teilenummer
  2
PARTNUMBER
 70
     0
  0
ATTDEF
  5
54
100
AcDbEntity
  8
0
100
AcDbText
 10
15.0
 20
10.0
 30
0.0
 40
0.2
  1

100
AcDbAttributeDefinition
  3
Produktbeschreibung
  2
PRODUCTDESCRIPTION
 70
     0
  0
ATTDEF
  5
55
100
AcDbEntity
  8
0
100
AcDbText
 10
15.0
 20
10.0
 30
0.0
 40
0.2
  1

100
AcDbAttributeDefinition
  3
Inventarnummer
  2
ASSETNUMBER
 70
     0
  0
ATTDEF
  5
56
100
AcDbEntity
  8
0
100
AcDbText
 10
15.0
 20
10.0
 30
0.0
 40
0.2
  1

100
AcDbAttributeDefinition
  3
Seriennummer
  2
SERIALNUMBER
 70
     0
  0
ATTDEF
  5
57
100
AcDbEntity
  8
0
100
AcDbText
 10
15.0
 20
10.0
 30
0.0
 40
0.2
  1

100
AcDbAttributeDefinition
  3
Standort
  2
LOCATION
 70
     0
  0
ATTDEF
  5
58
100
AcDbEntity
  8
0
100
AcDbText
 10
15.0
 20
10.0
 30
0.0
 40
0.2
  1

100
AcDbAttributeDefinition
  3
Geb\U+00E4ude
  2
BUILDING
 70
     0
  0
ATTDEF
  5
59
100
AcDbEntity
  8
0
100
AcDbText
 10
15.0
 20
10.0
 30
0.0
 40
0.2
  1

100
AcDbAttributeDefinition
  3
Raum
  2
ROOM
 70
     0
  0
ATTDEF
  5
5A
100
AcDbEntity
  8
0
100
AcDbText
 10
15.0
 20
10.0
 30
0.0
 40
0.2
  1

100
AcDbAttributeDefinition
  3
Abteilung
  2
DEPARTMENT
 70
     0
  0
LINE
  5
5B
100
AcDbEntity
  8
0
  6
CONTINUOUS
 62
     7
100
AcDbLine
 10
10.833333
 20
9.166667
 30
0.0
 11
19.166667
 21
9.166667
 31
0.0
  0
LINE
  5
5C
100
AcDbEntity
  8
0
  6
CONTINUOUS
 62
     7
100
AcDbLine
 10
10.0
 20
5.833333
 30
0.0
 11
20.0
 21
5.833333
 31
0.0
  0
LWPOLYLINE
  5
5D
102
{ACAD_REACTORS
330
5E
102
}
100
AcDbEntity
  8
0
  6
CONTINUOUS
 62
     7
100
AcDbPolyline
 90
        8
 70
     1
 10
10.833333
 20
9.166667
 10
10.833333
 20
15.0
 10
19.166667
 20
15.0
 10
19.166667
 20
9.166667
 10
20.0
 20
5.833333
 10
20.0
 20
5.0
 10
10.0
 20
5.0
 10
10.0
 20
5.833333
  0
HATCH
  5
5E
100
AcDbEntity
  8
0
 62
   253
100
AcDbHatch
 10
0.0
 20
0.0
 30
0.0
210
0.0
220
0.0
230
1.0
  2
SOLID
 70
     1
 71
     1
 91
        1
 92
        3
 72
     0
 73
     1
 93
        8
 10
10.833333333333334
 20
9.1666666666666679
 10
10.833333333333334
 20
15.0
 10
19.166666666666668
 20
15.0
 10
19.166666666666668
 20
9.1666666666666679
 10
20.000000000000004
 20
5.8333333333333348
 10
20.000000000000004
 20
5.0000000000000018
 10
10.000000000000002
 20
5.0000000000000018
 10
10.000000000000002
 20
5.8333333333333348
 97
        1
330
5D
 75
     0
 76
     1
 98
        0
  0
LWPOLYLINE
  5
5F
102
{ACAD_REACTORS
330
62
102
}
100
AcDbEntity
  8
0
  6
CONTINUOUS
 62
     7
100
AcDbPolyline
 90
        4
 70
     1
 10
10.885417
 20
8.125
 10
10.989584
 20
8.541667
 10
19.010417
 20
8.541667
 10
19.114584
 20
8.125
  0
LWPOLYLINE
  5
60
102
{ACAD_REACTORS
330
62
102
}
100
AcDbEntity
  8
0
  6
CONTINUOUS
 62
     7
100
AcDbPolyline
 90
        4
 70
     1
 10
10.416667
 20
6.25
 10
10.833333
 20
7.916667
 10
19.166667
 20
7.916667
 10
19.583333
 20
6.25
  0
LWPOLYLINE
  5
61
102
{ACAD_REACTORS
330
62
102
}
100
AcDbEntity
  8
0
  6
CONTINUOUS
 62
     7
100
AcDbPolyline
 90
        2
 70
     1
 10
17.916667
 20
10.416667
 42
-1.0
 10
18.333333
 20
10.416667
 42
-1.0
  0
HATCH
  5
62
100
AcDbEntity
  8
0
 62
     7
100
AcDbHatch
 10
0.0
 20
0.0
 30
0.0
210
0.0
220
0.0
230
1.0
  2
SOLID
 70
     1
 71
     1
 91
        2
 92
        3
 72
     1
 73
     1
 93
        2
 10
17.916666666666668
 20
10.416666666666668
 42
-0.9999999999999932
 10
18.333333333333336
 20
10.416666666666668
 42
-1.0000000000000204
 97
        3
330
5F
330
60
330
61
 92
        3
 72
     0
 73
     1
 93
        4
 10
16.666666666666671
 20
5.2083333333333348
 10
19.583333333333336
 20
5.2083333333333348
 10
19.583333333333336
 20
5.6250000000000009
 10
16.666666666666671
 20
5.6250000000000009
 97
        1
330
64
 75
     0
 76
     1
 98
        0
  0
LWPOLYLINE
  5
63
100
AcDbEntity
  8
0
  6
CONTINUOUS
 62
     7
100
AcDbPolyline
 90
        4
 70
     1
 10
17.708333
 20
10.0
 10
18.541667
 20
10.0
 10
18.541667
 20
10.833333
 10
17.708333
 20
10.833333
  0
LWPOLYLINE
  5
64
102
{ACAD_REACTORS
330
62
102
}
100
AcDbEntity
  8
0
  6
CONTINUOUS
 62
     7
100
AcDbPolyline
 90
        4
 70
     1
 10
16.666667
 20
5.208333
 10
19.583333
 20
5.208333
 10
19.583333
 20
5.625
 10
16.666667
 20
5.625
  0
LWPOLYLINE
  5
65
102
{ACAD_REACTORS
330
74
102
}
100
AcDbEntity
  8
0
  6
CONTINUOUS
 62
     7
100
AcDbPolyline
 90
        4
 70
     1
 10
11.666667
 20
10.0
 10
17.5
 20
10.0
 10
17.5
 20
14.166667
 10
11.666667
 20
14.166667
  0
LWPOLYLINE
  5
66
100
AcDbEntity
  8
0
  6
CONTINUOUS
 62
     7
100
AcDbPolyline
 90
        4
 70
     1
 10
11.25
 20
9.583333
 10
18.75
 20
9.583333
 10
18.75
 20
14.583333
 10
11.25
 20
14.583333
  0
LWPOLYLINE
  5
67
100
AcDbEntity
  8
0
  6
CONTINUOUS
 62
     7
100
AcDbPolyline
 90
        4
 70
     1
 10
17.916667
 20
13.541667
 10
18.541667
 20
13.541667
 10
18.541667
 20
14.166667
 10
17.916667
 20
14.166667
  0
MTEXT
  5
68
100
AcDbEntity
  8
0
100
AcDbMText
 10
15.0
 20
2.600483
 30
0.0
 40
4.109294
 41
28.222222
 71
     5
 72
     5
  1
\C7;\fArial|b0|i0|;\H4.1092942200601;Laptop
  0
ENDBLK
  5
69
100
AcDbEntity
  8
0
100
AcDbBlockEnd
  0
BLOCK
  5
6B
100
AcDbEntity
  8
0
100
AcDbBlockBegin
  2
2D-DOPPEL
 70
     0
 10
0.0
 20
0.0
 30
0.0
  3
2D-DOPPEL
  1

  0
LWPOLYLINE
  5
6C
102
{ACAD_REACTORS
330
74
102
}
100
AcDbEntity
  8
0
  6
CONTINUOUS
 62
     7
100
AcDbPolyline
 90
       10
 70
     1
 10
40.0
 20
55.0
 10
40.0
 20
60.0
 10
35.0
 20
50.0
 10
40.0
 20
40.0
 10
40.0
 20
45.0
 10
60.0
 20
45.0
 10
60.0
 20
40.0
 10
65.0
 20
50.0
 10
60.0
 20
60.0
 10
60.0
 20
55.0
  0
ENDBLK
  5
6D
100
AcDbEntity
  8
0
100
AcDbBlockEnd
  0
BLOCK
  5
6F
100
AcDbEntity
  8
0
100
AcDbBlockBegin
  2
KREIS
 70
     0
 10
0.0
 20
0.0
 30
0.0
  3
KREIS
  1

  0
LINE
  5
70
102
{ACAD_REACTORS
330
74
102
}
100
AcDbEntity
  8
0
  6
CONTINUOUS
 62
     7
100
AcDbLine
 10
17.393399
 20
11.393397
 30
0.0
 11
14.393398
 21
14.393398
 31
0.0
  0
LINE
  5
71
102
{ACAD_REACTORS
330
74
102
}
100
AcDbEntity
  8
0
  6
CONTINUOUS
 62
     7
100
AcDbLine
 10
14.393398
 20
14.393398
 30
0.0
 11
35.606602
 21
35.606602
 31
0.0
  0
LINE
  5
72
102
{ACAD_REACTORS
330
74
102
}
100
AcDbEntity
  8
0
  6
CONTINUOUS
 62
     7
100
AcDbLine
 10
35.606602
 20
35.606602
 30
0.0
 11
38.606603
 21
32.606601
 31
0.0
  0
ELLIPSE
  5
73
102
{ACAD_REACTORS
330
74
102
}
100
AcDbEntity
  8
0
  6
CONTINUOUS
 62
     7
100
AcDbEllipse
 10
27.717659
 20
22.282341
 30
0.0
 11
10.888943174760941
 21
-10.888943174760902
 31
0.0
210
0.0
220
0.0
230
1.0
 40
0.974398
 41
4.7383210749359765
 42
1.5448642322436092
  0
HATCH
  5
74
100
AcDbEntity
  8
0
 62
   252
100
AcDbHatch
 10
0.0
 20
0.0
 30
0.0
210
0.0
220
0.0
230
1.0
  2
SOLID
 70
     1
 71
     1
 91
        1
 92
        1
 93
        4
 72
     1
 10
17.393399210548534
 20
11.393397353854754
 11
14.39339828220167
 21
14.393398282201606
 72
     1
 10
14.39339828220167
 20
14.393398282201606
 11
35.606601717798064
 21
35.606601717798078
 72
     1
 10
35.606601717798064
 20
35.606601717798078
 11
38.606602646144928
 21
32.606600789451221
 72
     3
 10
27.717659471384025
 20
22.282340528615691
 11
10.610169046785099
 21
10.610169046785137
 40
1.026274
 50
1.4858
 51
178.5142
 73
     0
 97
        6
330
65
330
6C
330
70
330
71
330
72
330
73
 75
     0
 76
     1
 98
        0
  0
LWPOLYLINE
  5
75
102
{ACAD_REACTORS
330
7A
102
}
100
AcDbEntity
  8
0
  6
CONTINUOUS
 62
     7
100
AcDbPolyline
 90
        2
 70
     1
 10
10.0
 20
25.0
 42
-1.0
 10
40.0
 20
25.0
 42
-1.0
  0
ENDBLK
  5
76
100
AcDbEntity
  8
0
100
AcDbBlockEnd
  0
BLOCK
  5
78
100
AcDbEntity
  8
0
100
AcDbBlockBegin
  2
HORIZONTALER_BALKEN
 70
     0
 10
0.0
 20
0.0
 30
0.0
  3
HORIZONTALER_BALKEN
  1

  0
LWPOLYLINE
  5
79
102
{ACAD_REACTORS
330
7A
102
}
100
AcDbEntity
  8
0
  6
CONTINUOUS
 62
     7
100
AcDbPolyline
 90
        8
 70
     1
 10
10.0
 20
20.0
 10
40.0
 20
20.0
 10
40.0
 20
30.0
 10
43.0
 20
27.0
 10
43.0
 20
17.0
 10
40.0
 20
20.0
 10
43.0
 20
17.0
 10
13.0
 20
17.0
  0
HATCH
  5
7A
100
AcDbEntity
  8
0
 62
   252
100
AcDbHatch
 10
0.0
 20
0.0
 30
0.0
210
0.0
220
0.0
230
1.0
  2
SOLID
 70
     1
 71
     1
 91
        1
 92
        3
 72
     0
 73
     1
 93
        8
 10
9.9999999999999982
 20
20.0
 10
40.000000000000014
 20
20.0
 10
40.000000000000014
 20
30.0
 10
43.0
 20
27.0
 10
43.0
 20
17.0
 10
40.000000000000014
 20
20.0
 10
43.0
 20
17.0
 10
12.999999999999998
 20
17.0
 97
        2
330
75
330
79
 75
     0
 76
     1
 98
        0
  0
LWPOLYLINE
  5
7B
102
{ACAD_REACTORS
330
97
102
}
100
AcDbEntity
  8
0
  6
CONTINUOUS
 62
     7
100
AcDbPolyline
 90
        4
 70
     1
 10
10.0
 20
20.042333
 10
40.0
 20
20.042333
 10
40.0
 20
29.957667
 10
10.0
 20
29.957667
  0
LWPOLYLINE
  5
7C
100
AcDbEntity
  8
0
  6
CONTINUOUS
 62
     7
100
AcDbPolyline
 90
        3
 70
     0
 10
10.0
 20
20.0
 10
10.0
 20
30.0
 10
40.0
 20
30.0
  0
LWPOLYLINE
  5
7D
100
AcDbEntity
  8
0
  6
CONTINUOUS
 62
     7
100
AcDbPolyline
 90
        3
 70
     0
 10
10.0
 20
20.0
 10
40.0
 20
20.0
 10
40.0
 20
30.0
  0
ENDBLK
  5
7E
100
AcDbEntity
  8
0
100
AcDbBlockEnd
  0
BLOCK
  5
80
100
AcDbEntity
  8
0
100
AcDbBlockBegin
  2
MODEM-BANK
 70
     0
 10
0.0
 20
0.0
 30
0.0
  3
MODEM-BANK
  1

  0
ENDBLK
  5
81
100
AcDbEntity
  8
0
100
AcDbBlockEnd
  0
BLOCK
  5
83
100
AcDbEntity
  8
0
100
AcDbBlockBegin
  2
KABELMODEMS
 70
     0
 10
0.0
 20
0.0
 30
0.0
  3
KABELMODEMS
  1

  0
ENDBLK
  5
84
100
AcDbEntity
  8
0
100
AcDbBlockEnd
  0
BLOCK
  5
86
100
AcDbEntity
  8
0
100
AcDbBlockBegin
  2
SENDETURM
 70
     0
 10
0.0
 20
0.0
 30
0.0
  3
SENDETURM
  1

  0
LWPOLYLINE
  5
87
100
AcDbEntity
  8
0
  6
CONTINUOUS
 62
    10
100
AcDbPolyline
 90
        4
 70
     0
 10
24.125
 20
35.590418
 10
22.346026
 20
35.719217
 10
23.278974
 20
36.316525
 10
21.5
 20
36.445325
  0
LWPOLYLINE
  5
88
100
AcDbEntity
  8
0
  6
CONTINUOUS
 62
    10
100
AcDbPolyline
 90
        4
 70
     0
 10
28.5
 20
36.445325
 10
26.706127
 20
35.5
 10
27.231373
 20
36.535743
 10
25.4375
 20
35.590418
  0
LWPOLYLINE
  5
89
100
AcDbEntity
  8
0
  6
CONTINUOUS
 62
    10
100
AcDbPolyline
 90
        4
 70
     0
 10
25.0
 20
36.017871
 10
24.5625
 20
38.155139
 10
25.4375
 20
37.300232
 10
25.0
 20
39.4375
  0
LWPOLYLINE
  5
8A
100
AcDbEntity
  8
0
  6
CONTINUOUS
 62
     7
100
AcDbPolyline
 90
        4
 70
     1
 10
21.5
 20
16.25
 10
25.0
 20
14.5
 10
28.5
 20
16.25
 10
25.0
 20
35.5
  0
LWPOLYLINE
  5
8B
100
AcDbEntity
  8
0
  6
CONTINUOUS
 62
     7
100
AcDbPolyline
 90
        3
 70
     0
 10
21.5
 20
16.25
 10
25.0
 20
18.0
 10
28.5
 20
16.25
  0
LWPOLYLINE
  5
8C
100
AcDbEntity
  8
0
  6
CONTINUOUS
 62
     7
100
AcDbPolyline
 90
        6
 70
     0
 10
25.0
 20
35.5
 10
25.0
 20
14.5
 10
21.5
 20
16.25
 10
25.0
 20
35.5
 10
28.5
 20
16.25
 10
25.0
 20
14.5
  0
LWPOLYLINE
  5
8D
100
AcDbEntity
  8
0
  6
CONTINUOUS
 62
     7
100
AcDbPolyline
 90
        3
 70
     0
 10
24.125
 20
30.6875
 10
25.0
 20
30.25
 10
25.875
 20
30.6875
  0
LWPOLYLINE
  5
8E
100
AcDbEntity
  8
0
  6
CONTINUOUS
 62
     7
100
AcDbPolyline
 90
        3
 70
     0
 10
23.833332
 20
29.083332
 10
25.0
 20
28.5
 10
26.175782
 20
29.074218
  0
LWPOLYLINE
  5
8F
100
AcDbEntity
  8
0
  6
CONTINUOUS
 62
     7
100
AcDbPolyline
 90
        3
 70
     0
 10
23.541668
 20
27.479168
 10
25.0
 20
26.75
 10
26.421876
 20
27.515626
  0
LWPOLYLINE
  5
90
100
AcDbEntity
  8
0
  6
CONTINUOUS
 62
     7
100
AcDbPolyline
 90
        3
 70
     0
 10
23.25
 20
25.875
 10
25.0
 20
25.0
 10
26.75
 20
25.875
  0
LWPOLYLINE
  5
91
100
AcDbEntity
  8
0
  6
CONTINUOUS
 62
     7
100
AcDbPolyline
 90
        3
 70
     0
 10
22.958332
 20
24.270832
 10
25.0
 20
23.25
 10
27.041668
 20
24.270832
  0
LWPOLYLINE
  5
92
100
AcDbEntity
  8
0
  6
CONTINUOUS
 62
     7
100
AcDbPolyline
 90
        3
 70
     0
 10
22.666668
 20
22.666668
 10
25.0
 20
21.5
 10
27.296876
 20
22.703126
  0
LWPOLYLINE
  5
93
100
AcDbEntity
  8
0
  6
CONTINUOUS
 62
     7
100
AcDbPolyline
 90
        3
 70
     0
 10
22.375
 20
21.0625
 10
25.0
 20
19.75
 10
27.625
 20
21.0625
  0
LWPOLYLINE
  5
94
100
AcDbEntity
  8
0
  6
CONTINUOUS
 62
     7
100
AcDbPolyline
 90
        3
 70
     0
 10
22.083332
 20
19.458332
 10
25.0
 20
18.0
 10
27.925782
 20
19.449218
  0
LWPOLYLINE
  5
95
100
AcDbEntity
  8
0
  6
CONTINUOUS
 62
     7
100
AcDbPolyline
 90
        3
 70
     0
 10
21.791668
 20
17.854168
 10
25.0
 20
16.25
 10
28.171876
 20
17.890626
  0
LWPOLYLINE
  5
96
102
{ACAD_REACTORS
330
97
102
}
100
AcDbEntity
  8
0
  6
CONTINUOUS
 62
     7
100
AcDbPolyline
 90
        6
 70
     1
 10
24.5625
 20
34.1875
 10
25.0
 20
34.625
 10
25.4375
 20
34.1875
 10
25.65625
 20
32.875
 10
25.0
 20
32.4375
 10
24.34375
 20
32.875
  0
HATCH
  5
97
100
AcDbEntity
  8
0
 62
   250
100
AcDbHatch
 10
0.0
 20
0.0
 30
0.0
210
0.0
220
0.0
230
1.0
  2
SOLID
 70
     1
 71
     1
 91
        1
 92
        3
 72
     0
 73
     1
 93
        6
 10
24.5625
 20
34.187500000000007
 10
25.0
 20
34.625000000000007
 10
25.4375
 20
34.187500000000007
 10
25.656249999999996
 20
32.875
 10
25.0
 20
32.437500000000007
 10
24.34375
 20
32.875
 97
        2
330
7B
330
96
 75
     0
 76
     1
 98
        0
  0
LWPOLYLINE
  5
98
100
AcDbEntity
  8
0
  6
CONTINUOUS
 62
     2
100
AcDbPolyline
 90
        4
 70
     0
 10
24.125
 20
35.590418
 10
22.346026
 20
35.719217
 10
23.278974
 20
36.316525
 10
21.5
 20
36.445325
  0
LWPOLYLINE
  5
99
100
AcDbEntity
  8
0
  6
CONTINUOUS
 62
     2
100
AcDbPolyline
 90
        4
 70
     0
 10
28.5
 20
36.445325
 10
26.706127
 20
35.5
 10
27.231373
 20
36.535743
 10
25.4375
 20
35.590418
  0
LWPOLYLINE
  5
9A
100
AcDbEntity
  8
0
  6
CONTINUOUS
 62
     2
100
AcDbPolyline
 90
        4
 70
     0
 10
25.0
 20
36.017871
 10
24.5625
 20
38.155139
 10
25.4375
 20
37.300232
 10
25.0
 20
39.4375
  0
MTEXT
  5
9B
100
AcDbEntity
  8
0
100
AcDbMText
 10
25.0
 20
12.100483
 30
0.0
 40
4.109294
 41
16.266029
 71
     5
 72
     5
  1
\C7;\fArial|b0|i0|;\H4.1092942200601;Send\Petur\Pm
  0
ENDBLK
  5
9C
100
AcDbEntity
  8
0
100
AcDbBlockEnd
  0
BLOCK
  5
9E
100
AcDbEntity
  8
0
100
AcDbBlockBegin
  2
ORT
 70
     0
 10
0.0
 20
0.0
 30
0.0
  3
ORT
  1

  0
ELLIPSE
  5
9F
102
{ACAD_REACTORS
330
A1
102
}
100
AcDbEntity
  8
0
  6
CONTINUOUS
 62
     7
100
AcDbEllipse
 10
25.0
 20
21.953125
 30
0.0
 11
7.4999999999999973
 21
0.0
 31
0.0
210
0.0
220
0.0
230
1.0
 40
0.34375
 41
-0.0000000000000004
 42
3.1415926535898078
  0
ELLIPSE
  5
A0
102
{ACAD_REACTORS
330
A1
102
}
100
AcDbEntity
  8
0
  6
CONTINUOUS
 62
     7
100
AcDbEllipse
 10
25.0
 20
21.953125
 30
0.0
 11
7.4999999999999973
 21
0.0
 31
0.0
210
0.0
220
0.0
230
1.0
 40
0.34375
 41
3.1415926535897927
 42
6.2831853071796004
  0
HATCH
  5
A1
100
AcDbEntity
  8
0
 62
   110
100
AcDbHatch
 10
0.0
 20
0.0
 30
0.0
210
0.0
220
0.0
230
1.0
  2
SOLID
 70
     1
 71
     1
 91
        1
 92
        1
 93
        2
 72
     3
 10
25.0
 20
21.953125000000004
 11
7.4999999999999973
 21
0.0
 40
0.34375
 50
180.0
 51
0.0
 73
     0
 72
     3
 10
25.0
 20
21.953125000000004
 11
7.4999999999999973
 21
0.0
 40
0.34375
 50
360.0
 51
540.0
 73
     0
 97
        2
330
9F
330
A0
 75
     0
 76
     1
 98
        0
  0
ELLIPSE
  5
A2
100
AcDbEntity
  8
0
  6
CONTINUOUS
 62
     7
100
AcDbEllipse
 10
25.0
 20
21.953125
 30
0.0
 11
7.4999999999999973
 21
0.0
 31
0.0
210
0.0
220
0.0
230
1.0
 40
0.34375
 41
-0.0000000000000004
 42
3.1415926535898078
  0
ELLIPSE
  5
A3
100
AcDbEntity
  8
0
  6
CONTINUOUS
 62
     7
100
AcDbEllipse
 10
25.0
 20
21.953125
 30
0.0
 11
7.4999999999999973
 21
0.0
 31
0.0
210
0.0
220
0.0
230
1.0
 40
0.34375
 41
3.1415926535897927
 42
6.2831853071796004
  0
LWPOLYLINE
  5
A4
102
{ACAD_REACTORS
330
A5
102
}
100
AcDbEntity
  8
0
  6
CONTINUOUS
 62
     7
100
AcDbPolyline
 90
        4
 70
     1
 10
26.875
 20
22.890625
 10
26.875
 20
24.296875
 10
29.453125
 20
24.296875
 10
29.453125
 20
22.890625
  0
HATCH
  5
A5
100
AcDbEntity
  8
0
 62
    54
100
AcDbHatch
 10
0.0
 20
0.0
 30
0.0
210
0.0
220
0.0
230
1.0
  2
SOLID
 70
     1
 71
     1
 91
        1
 92
        3
 72
     0
 73
     1
 93
        4
 10
26.874999999999996
 20
22.890625
 10
26.874999999999996
 20
24.296875
 10
29.453124999999996
 20
24.296875000000004
 10
29.453124999999996
 20
22.890625
 97
        1
330
A4
 75
     0
 76
     1
 98
        0
  0
LWPOLYLINE
  5
A6
102
{ACAD_REACTORS
330
A7
102
}
100
AcDbEntity
  8
0
  6
CONTINUOUS
 62
     7
100
AcDbPolyline
 90
        4
 70
     1
 10
29.453125
 20
24.296875
 10
29.453125
 20
22.890625
 10
30.15625
 20
23.59375
 10
30.15625
 20
25.0
  0
HATCH
  5
A7
100
AcDbEntity
  8
0
 62
    54
100
AcDbHatch
 10
0.0
 20
0.0
 30
0.0
210
0.0
220
0.0
230
1.0
  2
SOLID
 70
     1
 71
     1
 91
        1
 92
        3
 72
     0
 73
     1
 93
        4
 10
29.453125
 20
24.296875
 10
29.453125
 20
22.890625
 10
30.15625
 20
23.593750000000004
 10
30.15625
 20
25.0
 97
        1
330
A6
 75
     0
 76
     1
 98
        0
  0
LWPOLYLINE
  5
A8
102
{ACAD_REACTORS
330
A9
102
}
100
AcDbEntity
  8
0
  6
CONTINUOUS
 62
     7
100
AcDbPolyline
 90
        3
 70
     1
 10
29.453125
 20
24.296875
 10
29.6875
 20
25.234375
 10
30.15625
 20
25.0
  0
HATCH
  5
A9
100
AcDbEntity
  8
0
 62
   253
100
AcDbHatch
 10
0.0
 20
0.0
 30
0.0
210
0.0
220
0.0
230
1.0
  2
SOLID
 70
     1
 71
     1
 91
        1
 92
        3
 72
     0
 73
     1
 93
        3
 10
29.453125
 20
24.296875
 10
29.6875
 20
25.234374999999996
 10
30.15625
 20
25.0
 97
        1
330
A8
 75
     0
 76
     1
 98
        0
  0
LWPOLYLINE
  5
AA
102
{ACAD_REACTORS
330
AB
102
}
100
AcDbEntity
  8
0
  6
CONTINUOUS
 62
     7
100
AcDbPolyline
 90
        4
 70
     1
 10
29.6875
 20
25.234375
 10
27.34375
 20
25.234375
 10
26.875
 20
24.296875
 10
29.453125
 20
24.296875
  0
HATCH
  5
AB
100
AcDbEntity
  8
0
 62
   253
100
AcDbHatch
 10
0.0
 20
0.0
 30
0.0
210
0.0
220
0.0
230
1.0
  2
SOLID
 70
     1
 71
     1
 91
        1
 92
        3
 72
     0
 73
     1
 93
        4
 10
29.6875
 20
25.234374999999996
 10
27.343750000000004
 20
25.234374999999996
 10
26.875
 20
24.296875
 10
29.453125
 20
24.296875
 97
        1
330
AA
 75
     0
 76
     1
 98
        0
  0
LWPOLYLINE
  5
AC
102
{ACAD_REACTORS
330
AD
102
}
100
AcDbEntity
  8
0
  6
CONTINUOUS
 62
     7
100
AcDbPolyline
 90
        4
 70
     1
 10
18.90625
 20
22.421875
 10
18.90625
 20
27.109375
 10
22.1875
 20
27.109375
 10
22.1875
 20
22.421875
  0
HATCH
  5
AD
100
AcDbEntity
  8
0
 62
    32
100
AcDbHatch
 10
0.0
 20
0.0
 30
0.0
210
0.0
220
0.0
230
1.0
  2
SOLID
 70
     1
 71
     1
 91
        1
 92
        3
 72
     0
 73
     1
 93
        4
 10
18.906250000000007
 20
22.421875000000004
 10
18.906250000000007
 20
27.109375000000004
 10
22.1875
 20
27.109375000000004
 10
22.1875
 20
22.421875000000004
 97
        1
330
AC
 75
     0
 76
     1
 98
        0
  0
LWPOLYLINE
  5
AE
102
{ACAD_REACTORS
330
AF
102
}
100
AcDbEntity
  8
0
  6
CONTINUOUS
 62
     7
100
AcDbPolyline
 90
        4
 70
     1
 10
18.90625
 20
27.109375
 10
19.609375
 20
27.8125
 10
22.890625
 20
27.8125
 10
22.1875
 20
27.109375
  0
HATCH
  5
AF
100
AcDbEntity
  8
0
 62
   252
100
AcDbHatch
 10
0.0
 20
0.0
 30
0.0
210
0.0
220
0.0
230
1.0
  2
SOLID
 70
     1
 71
     1
 91
        1
 92
        3
 72
     0
 73
     1
 93
        4
 10
18.906250000000007
 20
27.109375000000004
 10
19.609375
 20
27.812499999999996
 10
22.890625
 20
27.812499999999996
 10
22.1875
 20
27.109375000000004
 97
        1
330
AE
 75
     0
 76
     1
 98
        0
  0
LWPOLYLINE
  5
B0
102
{ACAD_REACTORS
330
B1
102
}
100
AcDbEntity
  8
0
  6
CONTINUOUS
 62
     7
100
AcDbPolyline
 90
        4
 70
     1
 10
22.1875
 20
27.109375
 10
22.1875
 20
22.421875
 10
22.890625
 20
23.125
 10
22.890625
 20
27.8125
  0
HATCH
  5
B1
100
AcDbEntity
  8
0
 62
    14
100
AcDbHatch
 10
0.0
 20
0.0
 30
0.0
210
0.0
220
0.0
230
1.0
  2
SOLID
 70
     1
 71
     1
 91
        1
 92
        3
 72
     0
 73
     1
 93
        4
 10
22.1875
 20
27.109375
 10
22.1875
 20
22.421875
 10
22.890625
 20
23.124999999999993
 10
22.890625
 20
27.812499999999979
 97
        1
330
B0
 75
     0
 76
     1
 98
        0
  0
LWPOLYLINE
  5
B2
102
{ACAD_REACTORS
330
B3
102
}
100
AcDbEntity
  8
0
  6
CONTINUOUS
 62
     7
100
AcDbPolyline
 90
        4
 70
     1
 10
22.890625
 20
24.296875
 10
23.59375
 20
25.0
 10
28.75
 20
25.0
 10
28.046875
 20
24.296875
  0
HATCH
  5
B3
100
AcDbEntity
  8
0
 62
   254
100
AcDbHatch
 10
0.0
 20
0.0
 30
0.0
210
0.0
220
0.0
230
1.0
  2
SOLID
 70
     1
 71
     1
 91
        1
 92
        3
 72
     0
 73
     1
 93
        4
 10
22.890625
 20
24.296875
 10
23.593749999999996
 20
24.999999999999996
 10
28.749999999999996
 20
25.0
 10
28.046874999999993
 20
24.296875
 97
        1
330
B2
 75
     0
 76
     1
 98
        0
  0
LWPOLYLINE
  5
B4
102
{ACAD_REACTORS
330
B5
102
}
100
AcDbEntity
  8
0
  6
CONTINUOUS
 62
     7
100
AcDbPolyline
 90
        3
 70
     1
 10
26.640625
 20
27.34375
 10
27.578125
 20
30.625
 10
28.046875
 20
27.34375
  0
HATCH
  5
B5
100
AcDbEntity
  8
0
 62
     7
100
AcDbHatch
 10
0.0
 20
0.0
 30
0.0
210
0.0
220
0.0
230
1.0
  2
SOLID
 70
     1
 71
     1
 91
        1
 92
        3
 72
     0
 73
     1
 93
        3
 10
26.640625
 20
27.343749999999996
 10
27.578125
 20
30.625000000000007
 10
28.046875
 20
27.343749999999996
 97
        1
330
B4
 75
     0
 76
     1
 98
        0
  0
LWPOLYLINE
  5
B6
102
{ACAD_REACTORS
330
B7
102
}
100
AcDbEntity
  8
0
  6
CONTINUOUS
 62
     7
100
AcDbPolyline
 90
        3
 70
     1
 10
28.046875
 20
27.34375
 10
27.578125
 20
30.625
 10
28.75
 20
28.046875
  0
HATCH
  5
B7
100
AcDbEntity
  8
0
 62
   252
100
AcDbHatch
 10
0.0
 20
0.0
 30
0.0
210
0.0
220
0.0
230
1.0
  2
SOLID
 70
     1
 71
     1
 91
        1
 92
        3
 72
     0
 73
     1
 93
        3
 10
28.046874999999993
 20
27.343749999999996
 10
27.578125
 20
30.624999999999982
 10
28.749999999999996
 20
28.046874999999993
 97
        1
330
B6
 75
     0
 76
     1
 98
        0
  0
LWPOLYLINE
  5
B8
102
{ACAD_REACTORS
330
B9
102
}
100
AcDbEntity
  8
0
  6
CONTINUOUS
 62
     7
100
AcDbPolyline
 90
        4
 70
     1
 10
26.640625
 20
20.3125
 10
26.640625
 20
21.71875
 10
29.21875
 20
21.71875
 10
29.21875
 20
20.3125
  0
HATCH
  5
B9
100
AcDbEntity
  8
0
 62
   253
100
AcDbHatch
 10
0.0
 20
0.0
 30
0.0
210
0.0
220
0.0
230
1.0
  2
SOLID
 70
     1
 71
     1
 91
        1
 92
        3
 72
     0
 73
     1
 93
        4
 10
26.640625
 20
20.312500000000004
 10
26.640625
 20
21.71875
 10
29.21875
 20
21.718750000000007
 10
29.21875
 20
20.312500000000004
 97
        1
330
B8
 75
     0
 76
     1
 98
        0
  0
LWPOLYLINE
  5
BA
102
{ACAD_REACTORS
330
BB
102
}
100
AcDbEntity
  8
0
  6
CONTINUOUS
 62
     7
100
AcDbPolyline
 90
        4
 70
     1
 10
29.21875
 20
21.71875
 10
29.21875
 20
20.3125
 10
29.921875
 20
21.015625
 10
29.921875
 20
22.421875
  0
HATCH
  5
BB
100
AcDbEntity
  8
0
 62
   253
100
AcDbHatch
 10
0.0
 20
0.0
 30
0.0
210
0.0
220
0.0
230
1.0
  2
SOLID
 70
     1
 71
     1
 91
        1
 92
        3
 72
     0
 73
     1
 93
        4
 10
29.21875
 20
21.71875
 10
29.21875
 20
20.3125
 10
29.921874999999996
 20
21.015625000000004
 10
29.921875000000004
 20
22.421875
 97
        1
330
BA
 75
     0
 76
     1
 98
        0
  0
LWPOLYLINE
  5
BC
102
{ACAD_REACTORS
330
BD
102
}
100
AcDbEntity
  8
0
  6
CONTINUOUS
 62
     7
100
AcDbPolyline
 90
        3
 70
     1
 10
29.21875
 20
21.71875
 10
29.453125
 20
22.65625
 10
29.921875
 20
22.421875
  0
HATCH
  5
BD
100
AcDbEntity
  8
0
 62
   253
100
AcDbHatch
 10
0.0
 20
0.0
 30
0.0
210
0.0
220
0.0
230
1.0
  2
SOLID
 70
     1
 71
     1
 91
        1
 92
        3
 72
     0
 73
     1
 93
        3
 10
29.21875
 20
21.71875
 10
29.453125
 20
22.656249999999996
 10
29.921874999999996
 20
22.421875
 97
        1
330
BC
 75
     0
 76
     1
 98
        0
  0
LWPOLYLINE
  5
BE
102
{ACAD_REACTORS
330
BF
102
}
100
AcDbEntity
  8
0
  6
CONTINUOUS
 62
     7
100
AcDbPolyline
 90
        4
 70
     1
 10
18.4375
 20
20.78125
 10
18.4375
 20
22.1875
 10
21.015625
 20
22.1875
 10
21.015625
 20
20.78125
  0
HATCH
  5
BF
100
AcDbEntity
  8
0
 62
   253
100
AcDbHatch
 10
0.0
 20
0.0
 30
0.0
210
0.0
220
0.0
230
1.0
  2
SOLID
 70
     1
 71
     1
 91
        1
 92
        3
 72
     0
 73
     1
 93
        4
 10
18.437499999999993
 20
20.781250000000004
 10
18.437499999999993
 20
22.1875
 10
21.015624999999993
 20
22.187500000000004
 10
21.015624999999993
 20
20.781250000000004
 97
        1
330
BE
 75
     0
 76
     1
 98
        0
  0
LWPOLYLINE
  5
C0
102
{ACAD_REACTORS
330
C1
102
}
100
AcDbEntity
  8
0
  6
CONTINUOUS
 62
     7
100
AcDbPolyline
 90
        4
 70
     1
 10
21.015625
 20
22.1875
 10
21.015625
 20
20.78125
 10
21.71875
 20
21.484375
 10
21.71875
 20
22.890625
  0
HATCH
  5
C1
100
AcDbEntity
  8
0
 62
   253
100
AcDbHatch
 10
0.0
 20
0.0
 30
0.0
210
0.0
220
0.0
230
1.0
  2
SOLID
 70
     1
 71
     1
 91
        1
 92
        3
 72
     0
 73
     1
 93
        4
 10
21.015624999999996
 20
22.1875
 10
21.015624999999996
 20
20.78125
 10
21.71875
 20
21.484375000000004
 10
21.71875
 20
22.890625
 97
        1
330
C0
 75
     0
 76
     1
 98
        0
  0
LWPOLYLINE
  5
C2
102
{ACAD_REACTORS
330
C3
102
}
100
AcDbEntity
  8
0
  6
CONTINUOUS
 62
     7
100
AcDbPolyline
 90
        3
 70
     1
 10
21.015625
 20
22.1875
 10
21.25
 20
23.125
 10
21.71875
 20
22.890625
  0
HATCH
  5
C3
100
AcDbEntity
  8
0
 62
   253
100
AcDbHatch
 10
0.0
 20
0.0
 30
0.0
210
0.0
220
0.0
230
1.0
  2
SOLID
 70
     1
 71
     1
 91
        1
 92
        3
 72
     0
 73
     1
 93
        3
 10
21.015624999999993
 20
22.1875
 10
21.249999999999996
 20
23.125
 10
21.718749999999996
 20
22.890625
 97
        1
330
C2
 75
     0
 76
     1
 98
        0
  0
LWPOLYLINE
  5
C4
102
{ACAD_REACTORS
330
C5
102
}
100
AcDbEntity
  8
0
  6
CONTINUOUS
 62
     7
100
AcDbPolyline
 90
        4
 70
     1
 10
21.25
 20
23.125
 10
18.90625
 20
23.125
 10
18.4375
 20
22.1875
 10
21.015625
 20
22.1875
  0
HATCH
  5
C5
100
AcDbEntity
  8
0
 62
   253
100
AcDbHatch
 10
0.0
 20
0.0
 30
0.0
210
0.0
220
0.0
230
1.0
  2
SOLID
 70
     1
 71
     1
 91
        1
 92
        3
 72
     0
 73
     1
 93
        4
 10
21.249999999999996
 20
23.125
 10
18.906249999999996
 20
23.125000000000004
 10
18.437499999999996
 20
22.1875
 10
21.015624999999996
 20
22.1875
 97
        1
330
C4
 75
     0
 76
     1
 98
        0
  0
LWPOLYLINE
  5
C6
102
{ACAD_REACTORS
330
C7
102
}
100
AcDbEntity
  8
0
  6
CONTINUOUS
 62
     7
100
AcDbPolyline
 90
        4
 70
     1
 10
22.421875
 20
19.84375
 10
22.421875
 20
21.25
 10
25.0
 20
21.25
 10
25.0
 20
19.84375
  0
HATCH
  5
C7
100
AcDbEntity
  8
0
 62
   171
100
AcDbHatch
 10
0.0
 20
0.0
 30
0.0
210
0.0
220
0.0
230
1.0
  2
SOLID
 70
     1
 71
     1
 91
        1
 92
        3
 72
     0
 73
     1
 93
        4
 10
22.421875
 20
19.84375
 10
22.421875
 20
21.25
 10
25.0
 20
21.250000000000007
 10
25.0
 20
19.84375
 97
        1
330
C6
 75
     0
 76
     1
 98
        0
  0
LWPOLYLINE
  5
C8
102
{ACAD_REACTORS
330
C9
102
}
100
AcDbEntity
  8
0
  6
CONTINUOUS
 62
     7
100
AcDbPolyline
 90
        4
 70
     1
 10
25.0
 20
21.25
 10
25.0
 20
19.84375
 10
25.703125
 20
20.546875
 10
25.703125
 20
21.953125
  0
HATCH
  5
C9
100
AcDbEntity
  8
0
 62
   171
100
AcDbHatch
 10
0.0
 20
0.0
 30
0.0
210
0.0
220
0.0
230
1.0
  2
SOLID
 70
     1
 71
     1
 91
        1
 92
        3
 72
     0
 73
     1
 93
        4
 10
25.0
 20
21.25
 10
25.0
 20
19.84375
 10
25.703125000000004
 20
20.546875000000004
 10
25.703125000000004
 20
21.953125
 97
        1
330
C8
 75
     0
 76
     1
 98
        0
  0
LWPOLYLINE
  5
CA
102
{ACAD_REACTORS
330
CB
102
}
100
AcDbEntity
  8
0
  6
CONTINUOUS
 62
     7
100
AcDbPolyline
 90
        8
 70
     1
 10
28.046875
 20
24.068099
 10
28.046875
 20
24.296875
 10
28.046875
 20
27.34375
 10
26.640625
 20
27.34375
 10
26.640625
 20
24.296875
 10
22.890625
 20
24.296875
 10
22.890625
 20
21.953125
 10
28.046875
 20
21.953125
  0
HATCH
  5
CB
100
AcDbEntity
  8
0
 62
   253
100
AcDbHatch
 10
0.0
 20
0.0
 30
0.0
210
0.0
220
0.0
230
1.0
  2
SOLID
 70
     1
 71
     1
 91
        1
 92
        3
 72
     0
 73
     1
 93
        8
 10
28.046874999999993
 20
24.068099402730414
 10
28.046874999999993
 20
24.296875
 10
28.046874999999993
 20
27.343750000000004
 10
26.640625
 20
27.343750000000004
 10
26.640625
 20
24.296875
 10
22.890625
 20
24.296875
 10
22.890625
 20
21.953125
 10
28.046874999999993
 20
21.953125
 97
        1
330
CA
 75
     0
 76
     1
 98
        0
  0
LWPOLYLINE
  5
CC
102
{ACAD_REACTORS
330
CD
102
}
100
AcDbEntity
  8
0
  6
CONTINUOUS
 62
     7
100
AcDbPolyline
 90
        4
 70
     1
 10
25.234375
 20
22.1875
 10
22.890625
 20
22.1875
 10
22.421875
 20
21.25
 10
25.0
 20
21.25
  0
HATCH
  5
CD
100
AcDbEntity
  8
0
 62
   253
100
AcDbHatch
 10
0.0
 20
0.0
 30
0.0
210
0.0
220
0.0
230
1.0
  2
SOLID
 70
     1
 71
     1
 91
        1
 92
        3
 72
     0
 73
     1
 93
        4
 10
25.234374999999996
 20
22.1875
 10
22.890624999999996
 20
22.1875
 10
22.421875
 20
21.25
 10
25.0
 20
21.25
 97
        1
330
CC
 75
     0
 76
     1
 98
        0
  0
LWPOLYLINE
  5
CE
102
{ACAD_REACTORS
330
CF
102
}
100
AcDbEntity
  8
0
  6
CONTINUOUS
 62
     7
100
AcDbPolyline
 90
        3
 70
     1
 10
25.0
 20
21.25
 10
25.234375
 20
22.1875
 10
25.703125
 20
21.953125
  0
HATCH
  5
CF
100
AcDbEntity
  8
0
 62
   253
100
AcDbHatch
 10
0.0
 20
0.0
 30
0.0
210
0.0
220
0.0
230
1.0
  2
SOLID
 70
     1
 71
     1
 91
        1
 92
        3
 72
     0
 73
     1
 93
        3
 10
24.999999999999993
 20
21.25
 10
25.234374999999996
 20
22.1875
 10
25.703124999999996
 20
21.953125
 97
        1
330
CE
 75
     0
 76
     1
 98
        0
  0
LWPOLYLINE
  5
D0
102
{ACAD_REACTORS
330
D1
102
}
100
AcDbEntity
  8
0
  6
CONTINUOUS
 62
     7
100
AcDbPolyline
 90
        6
 70
     1
 10
28.75
 20
25.0
 10
28.75
 20
28.046875
 10
28.046875
 20
27.34375
 10
28.046875
 20
24.296875
 10
28.046875
 20
21.953125
 10
28.75
 20
22.65625
  0
HATCH
  5
D1
100
AcDbEntity
  8
0
 62
   252
100
AcDbHatch
 10
0.0
 20
0.0
 30
0.0
210
0.0
220
0.0
230
1.0
  2
SOLID
 70
     1
 71
     1
 91
        1
 92
        3
 72
     0
 73
     1
 93
        6
 10
28.749999999999996
 20
25.0
 10
28.749999999999996
 20
28.046874999999993
 10
28.046875
 20
27.343750000000004
 10
28.046875
 20
24.296875
 10
28.046875
 20
21.953125
 10
28.749999999999996
 20
22.656249999999996
 97
        1
330
D0
 75
     0
 76
     1
 98
        0
  0
LWPOLYLINE
  5
D2
102
{ACAD_REACTORS
330
D3
102
}
100
AcDbEntity
  8
0
  6
CONTINUOUS
 62
     7
100
AcDbPolyline
 90
        4
 70
     1
 10
29.453125
 20
22.65625
 10
27.109375
 20
22.65625
 10
26.640625
 20
21.71875
 10
29.21875
 20
21.71875
  0
HATCH
  5
D3
100
AcDbEntity
  8
0
 62
   253
100
AcDbHatch
 10
0.0
 20
0.0
 30
0.0
210
0.0
220
0.0
230
1.0
  2
SOLID
 70
     1
 71
     1
 91
        1
 92
        3
 72
     0
 73
     1
 93
        4
 10
29.453125
 20
22.656249999999996
 10
27.109375
 20
22.65625
 10
26.640625
 20
21.71875
 10
29.21875
 20
21.71875
 97
        1
330
D2
 75
     0
 76
     1
 98
        0
  0
LWPOLYLINE
  5
D4
100
AcDbEntity
  8
0
  6
CONTINUOUS
 62
     7
100
AcDbPolyline
 90
       15
 70
     0
 10
18.90625
 20
23.359375
 10
18.90625
 20
27.109375
 10
19.609375
 20
27.8125
 10
22.890625
 20
27.8125
 10
22.890625
 20
24.53125
 10
23.125
 20
24.53125
 10
23.59375
 20
25.0
 10
26.640625
 20
25.0
 10
26.640625
 20
27.34375
 10
27.578125
 20
30.625
 10
28.75
 20
28.046875
 10
28.75
 20
25.234375
 10
29.6875
 20
25.234375
 10
30.15625
 20
25.0
 10
30.15625
 20
23.828125
  0
MTEXT
  5
D5
100
AcDbEntity
  8
0
100
AcDbMText
 10
25.0
 20
16.975483
 30
0.0
 40
4.109294
 41
6.380101
 71
     5
 72
     5
  1
\C7;\fArial|b0|i0|;\H4.1092942200601;O\Prt
  0
ENDBLK
  5
D6
100
AcDbEntity
  8
0
100
AcDbBlockEnd
  0
BLOCK
  5
D8
100
AcDbEntity
  8
0
100
AcDbBlockBegin
  2
FELD
 70
     0
 10
0.0
 20
0.0
 30
0.0
  3
FELD
  1

  0
LWPOLYLINE
  5
D9
100
AcDbEntity
  8
0
  6
CONTINUOUS
 62
     7
100
AcDbPolyline
 90
        4
 70
     1
 10
30.0
 20
35.0
 10
70.0
 20
35.0
 10
70.0
 20
65.0
 10
30.0
 20
65.0
  0
ENDBLK
  5
DA
100
AcDbEntity
  8
0
100
AcDbBlockEnd
  0
BLOCK
  5
DC
100
AcDbEntity
  8
0
100
AcDbBlockBegin
  2
MASTER_17
 70
     0
 10
0.0
 20
0.0
 30
0.0
  3
MASTER_17
  1

  0
LWPOLYLINE
  5
DD
100
AcDbEntity
  8
0
  6
CONTINUOUS
 62
     7
100
AcDbPolyline
 90
        3
 70
     1
 10
0.0
 20
3.0
 10
2.4
 20
3.0
 10
2.4
 20
0.060612
 42
2.805884
  0
CIRCLE
  5
DE
100
AcDbEntity
  8
0
  6
CONTINUOUS
 62
     7
100
AcDbCircle
 10
3.0
 20
3.0
 30
0.0
 40
2.85
  0
CIRCLE
  5
DF
100
AcDbEntity
  8
0
  6
CONTINUOUS
 62
     7
100
AcDbCircle
 10
3.0
 20
3.0
 30
0.0
 40
2.4
  0
ENDBLK
  5
E0
100
AcDbEntity
  8
0
100
AcDbBlockEnd
  0
BLOCK
  5
E2
100
AcDbEntity
  8
0
100
AcDbBlockBegin
  2
MASTER_18
 70
     0
 10
0.0
 20
0.0
 30
0.0
  3
MASTER_18
  1

  0
LWPOLYLINE
  5
E3
100
AcDbEntity
  8
0
  6
CONTINUOUS
 62
     7
100
AcDbPolyline
 90
        2
 70
     1
 10
-11.533333
 20
0.0
 10
10.583333
 20
0.0
  0
LWPOLYLINE
  5
E4
100
AcDbEntity
  8
0
  6
CONTINUOUS
 62
     7
100
AcDbPolyline
 90
        2
 70
     1
 10
-11.533333
 20
27.0
 10
10.583333
 20
27.0
  0
LINE
  5
E5
100
AcDbEntity
  8
0
  6
CONTINUOUS
 62
     7
100
AcDbLine
 10
-7.3
 20
-8.46328
 30
0.0
 11
-7.3
 21
0.0
 31
0.0
  0
LINE
  5
E6
100
AcDbEntity
  8
0
  6
CONTINUOUS
 62
     7
100
AcDbLine
 10
-7.3
 20
35.46328
 30
0.0
 11
-7.3
 21
27.0
 31
0.0
  0
MTEXT
  5
E7
100
AcDbEntity
  8
0
100
AcDbMText
 10
-10.899564
 20
13.0
 30
0.0
 40
3.081935
 41
19.353684
 71
     5
 72
     5
  1
\C7;\fArial|b0|i0|;\H3.0819353945553;27,00mm
 11
0.0
 21
1.0
 31
0.0
  0
ENDBLK
  5
E8
100
AcDbEntity
  8
0
100
AcDbBlockEnd
  0
BLOCK
  5
EA
100
AcDbEntity
  8
0
100
AcDbBlockBegin
  2
MASTER_19
 70
     2
 10
0.0
 20
0.0
 30
0.0
  3
MASTER_19
  1

  0
LWPOLYLINE
  5
EB
100
AcDbEntity
  8
0
  6
CONTINUOUS
 62
     7
100
AcDbPolyline
 90
        4
 70
     1
 10
0.0
 20
0.0
 10
40.0
 20
0.0
 10
40.0
 20
30.0
 10
0.0
 20
30.0
  0
ENDBLK
  5
EC
100
AcDbEntity
  8
0
100
AcDbBlockEnd
  0
BLOCK
  5
EE
100
AcDbEntity
  8
0
100
AcDbBlockBegin
  2
MASTER_20
 70
     0
 10
0.0
 20
0.0
 30
0.0
  3
MASTER_20
  1

  0
LWPOLYLINE
  5
EF
100
AcDbEntity
  8
0
  6
CONTINUOUS
 62
     7
100
AcDbPolyline
 90
        2
 70
     1
 10
0.0
 20
20.0
 42
-1.0
 10
40.0
 20
20.0
 42
-1.0
  0
ENDBLK
  5
F0
100
AcDbEntity
  8
0
100
AcDbBlockEnd
  0
BLOCK
  5
F2
100
AcDbEntity
  8
0
100
AcDbBlockBegin
  2
MA\U+00DF
 70
     0
 10
0.0
 20
0.0
 30
0.0
  3
MA\U+00DF
  1

  0
LWPOLYLINE
  5
F3
100
AcDbEntity
  8
0
  6
CONTINUOUS
 62
     7
100
AcDbPolyline
 90
        2
 70
     1
 10
14.809829
 20
-10.380342
 10
19.526699
 20
-0.946602
  0
LWPOLYLINE
  5
F4
100
AcDbEntity
  8
0
  6
CONTINUOUS
 62
     7
100
AcDbPolyline
 90
        2
 70
     1
 10
-5.190171
 20
-0.380342
 10
-0.473301
 20
9.053398
  0
LINE
  5
F5
100
AcDbEntity
  8
0
  6
CONTINUOUS
 62
     7
100
AcDbLine
 10
5.756431
 20
-3.487138
 30
0.0
 11
15.756431
 21
-8.487138
 31
0.0
  0
LINE
  5
F6
100
AcDbEntity
  8
0
  6
CONTINUOUS
 62
     7
100
AcDbLine
 10
5.756431
 20
-3.487138
 30
0.0
 11
-4.243569
 21
1.512862
 31
0.0
  0
MTEXT
  5
F7
100
AcDbEntity
  8
0
100
AcDbMText
 10
9.666084
 20
-4.001164
 30
0.0
 40
3.081935
 41
9.676842
 71
     5
 72
     5
  1
\C7;\fArial|b0|i0|;\H3.0819353945553;22,3\P6mm
 11
0.894427
 21
-0.447214
 31
0.0
  0
ENDBLK
  5
F8
100
AcDbEntity
  8
0
100
AcDbBlockEnd
  0
BLOCK
  5
FA
100
AcDbEntity
  8
0
100
AcDbBlockBegin
  2
M-LINIE
 70
     2
 10
0.0
 20
0.0
 30
0.0
  3
M-LINIE
  1

  0
LINE
  5
FC
100
AcDbEntity
  8
0
  6
DASHDOT
 62
     7
100
AcDbLine
 10
0.0
 20
5.0
 30
0.0
 11
8.0
 21
0.0
 31
0.0
  0
ENDBLK
  5
FD
100
AcDbEntity
  8
0
100
AcDbBlockEnd
  0
BLOCK
  5
FF
100
AcDbEntity
  8
0
100
AcDbBlockBegin
  2
BOHRKREIS
 70
     0
 10
0.0
 20
0.0
 30
0.0
  3
BOHRKREIS
  1

  0
LWPOLYLINE
  5
100
100
AcDbEntity
  8
0
  6
CONTINUOUS
 62
     7
100
AcDbPolyline
 90
        2
 70
     1
 10
0.0
 20
2.25
 42
-1.0
 10
4.5
 20
2.25
 42
-1.0
  0
LWPOLYLINE
  5
101
100
AcDbEntity
  8
0
  6
CONTINUOUS
 62
     7
100
AcDbPolyline
 90
        2
 70
     1
 10
1.75
 20
2.25
 42
-1.0
 10
2.75
 20
2.25
 42
-1.0
  0
ENDBLK
  5
102
100
AcDbEntity
  8
0
100
AcDbBlockEnd
  0
BLOCK
  5
104
100
AcDbEntity
  8
0
100
AcDbBlockBegin
  2
MATRIX
 70
     0
 10
0.0
 20
0.0
 30
0.0
  3
MATRIX
  1

  0
LWPOLYLINE
  5
105
100
AcDbEntity
  8
0
  6
CONTINUOUS
 62
     6
100
AcDbPolyline
 90
        4
 70
     1
 10
5.0
 20
5.0
 10
292.0
 20
5.0
 10
292.0
 20
215.396463
 10
5.0
 20
215.396463
  0
LINE
  5
106
100
AcDbEntity
  8
0
  6
CONTINUOUS
 62
     7
100
AcDbLine
 10
44.625
 20
210.396463
 30
0.0
 11
44.625
 21
215.396463
 31
0.0
  0
LINE
  5
107
100
AcDbEntity
  8
0
  6
CONTINUOUS
 62
     7
100
AcDbLine
 10
79.25
 20
210.396463
 30
0.0
 11
79.25
 21
215.396463
 31
0.0
  0
LINE
  5
108
100
AcDbEntity
  8
0
  6
CONTINUOUS
 62
     7
100
AcDbLine
 10
113.875
 20
210.396463
 30
0.0
 11
113.875
 21
215.396463
 31
0.0
  0
LINE
  5
109
100
AcDbEntity
  8
0
  6
CONTINUOUS
 62
     7
100
AcDbLine
 10
148.5
 20
210.396463
 30
0.0
 11
148.5
 21
215.396463
 31
0.0
  0
LINE
  5
10A
100
AcDbEntity
  8
0
  6
CONTINUOUS
 62
     7
100
AcDbLine
 10
183.125
 20
210.396463
 30
0.0
 11
183.125
 21
215.396463
 31
0.0
  0
LINE
  5
10B
100
AcDbEntity
  8
0
  6
CONTINUOUS
 62
     7
100
AcDbLine
 10
217.75
 20
210.396463
 30
0.0
 11
217.75
 21
215.396463
 31
0.0
  0
LINE
  5
10C
100
AcDbEntity
  8
0
  6
CONTINUOUS
 62
     7
100
AcDbLine
 10
252.375
 20
210.396463
 30
0.0
 11
252.375
 21
215.396463
 31
0.0
  0
LINE
  5
10D
100
AcDbEntity
  8
0
  6
CONTINUOUS
 62
     7
100
AcDbLine
 10
44.625
 20
10.0
 30
0.0
 11
44.625
 21
5.0
 31
0.0
  0
LINE
  5
10E
100
AcDbEntity
  8
0
  6
CONTINUOUS
 62
     7
100
AcDbLine
 10
79.25
 20
10.0
 30
0.0
 11
79.25
 21
5.0
 31
0.0
  0
LINE
  5
10F
100
AcDbEntity
  8
0
  6
CONTINUOUS
 62
     7
100
AcDbLine
 10
113.875
 20
10.0
 30
0.0
 11
113.875
 21
5.0
 31
0.0
  0
LINE
  5
110
100
AcDbEntity
  8
0
  6
CONTINUOUS
 62
     7
100
AcDbLine
 10
148.5
 20
10.0
 30
0.0
 11
148.5
 21
5.0
 31
0.0
  0
LINE
  5
111
100
AcDbEntity
  8
0
  6
CONTINUOUS
 62
     7
100
AcDbLine
 10
183.125
 20
10.0
 30
0.0
 11
183.125
 21
5.0
 31
0.0
  0
LINE
  5
112
100
AcDbEntity
  8
0
  6
CONTINUOUS
 62
     7
100
AcDbLine
 10
217.75
 20
10.0
 30
0.0
 11
217.75
 21
5.0
 31
0.0
  0
LINE
  5
113
100
AcDbEntity
  8
0
  6
CONTINUOUS
 62
     7
100
AcDbLine
 10
252.375
 20
10.0
 30
0.0
 11
252.375
 21
5.0
 31
0.0
  0
LINE
  5
114
100
AcDbEntity
  8
0
  6
CONTINUOUS
 62
     7
100
AcDbLine
 10
10.0
 20
185.346905
 30
0.0
 11
5.0
 21
185.346905
 31
0.0
  0
LINE
  5
115
100
AcDbEntity
  8
0
  6
CONTINUOUS
 62
     7
100
AcDbLine
 10
10.0
 20
160.297347
 30
0.0
 11
5.0
 21
160.297347
 31
0.0
  0
LINE
  5
116
100
AcDbEntity
  8
0
  6
CONTINUOUS
 62
     7
100
AcDbLine
 10
10.0
 20
135.247789
 30
0.0
 11
5.0
 21
135.247789
 31
0.0
  0
LINE
  5
117
100
AcDbEntity
  8
0
  6
CONTINUOUS
 62
     7
100
AcDbLine
 10
10.0
 20
110.198231
 30
0.0
 11
5.0
 21
110.198231
 31
0.0
  0
LINE
  5
118
100
AcDbEntity
  8
0
  6
CONTINUOUS
 62
     7
100
AcDbLine
 10
10.0
 20
85.148674
 30
0.0
 11
5.0
 21
85.148674
 31
0.0
  0
LINE
  5
119
100
AcDbEntity
  8
0
  6
CONTINUOUS
 62
     7
100
AcDbLine
 10
10.0
 20
60.099116
 30
0.0
 11
5.0
 21
60.099116
 31
0.0
  0
LINE
  5
11A
100
AcDbEntity
  8
0
  6
CONTINUOUS
 62
     7
100
AcDbLine
 10
10.0
 20
35.049558
 30
0.0
 11
5.0
 21
35.049558
 31
0.0
  0
LINE
  5
11B
100
AcDbEntity
  8
0
  6
CONTINUOUS
 62
     7
100
AcDbLine
 10
287.0
 20
185.346905
 30
0.0
 11
292.0
 21
185.346905
 31
0.0
  0
LINE
  5
11C
100
AcDbEntity
  8
0
  6
CONTINUOUS
 62
     7
100
AcDbLine
 10
287.0
 20
160.297347
 30
0.0
 11
292.0
 21
160.297347
 31
0.0
  0
LINE
  5
11D
100
AcDbEntity
  8
0
  6
CONTINUOUS
 62
     7
100
AcDbLine
 10
287.0
 20
135.247789
 30
0.0
 11
292.0
 21
135.247789
 31
0.0
  0
LINE
  5
11E
100
AcDbEntity
  8
0
  6
CONTINUOUS
 62
     7
100
AcDbLine
 10
287.0
 20
110.198231
 30
0.0
 11
292.0
 21
110.198231
 31
0.0
  0
LINE
  5
11F
100
AcDbEntity
  8
0
  6
CONTINUOUS
 62
     7
100
AcDbLine
 10
287.0
 20
85.148674
 30
0.0
 11
292.0
 21
85.148674
 31
0.0
  0
LINE
  5
120
100
AcDbEntity
  8
0
  6
CONTINUOUS
 62
     7
100
AcDbLine
 10
287.0
 20
60.099116
 30
0.0
 11
292.0
 21
60.099116
 31
0.0
  0
LINE
  5
121
100
AcDbEntity
  8
0
  6
CONTINUOUS
 62
     7
100
AcDbLine
 10
287.0
 20
35.049558
 30
0.0
 11
292.0
 21
35.049558
 31
0.0
  0
LWPOLYLINE
  5
122
100
AcDbEntity
  8
0
  6
CONTINUOUS
 62
     7
100
AcDbPolyline
 90
        4
 70
     1
 10
10.0
 20
210.396463
 10
10.0
 20
10.0
 10
287.0
 20
10.0
 10
287.0
 20
210.396463
  0
MTEXT
  5
123
100
AcDbEntity
  8
0
100
AcDbMText
 10
289.5
 20
213.966627
 30
0.0
 40
6.164012
 41
5.0
 71
     2
 72
     5
  1
\C7;\fArial|b0|i0|;\H6.1640118710697;H\PG\PF\PE\PD\PC\PB\PA\P
  0
MTEXT
  5
124
100
AcDbEntity
  8
0
100
AcDbMText
 10
5.0
 20
7.5
 30
0.0
 40
6.164012
 41
287.0
 71
     4
 72
     5
  1
\C7;\fArial|b0|i0|;\H6.1640118710697;87654\P321
  0
MTEXT
  5
125
100
AcDbEntity
  8
0
100
AcDbMText
 10
7.5
 20
213.966627
 30
0.0
 40
6.164012
 41
5.0
 71
     2
 72
     5
  1
\C7;\fArial|b0|i0|;\H6.1640118710697;H\PG\PF\PE\PD\PC\PB\PA\P
  0
MTEXT
  5
126
100
AcDbEntity
  8
0
100
AcDbMText
 10
5.0
 20
212.896463
 30
0.0
 40
6.164012
 41
287.0
 71
     4
 72
     5
  1
\C7;\fArial|b0|i0|;\H6.1640118710697;87654\P321
  0
ENDBLK
  5
127
100
AcDbEntity
  8
0
100
AcDbBlockEnd
  0
BLOCK
  5
129
100
AcDbEntity
  8
0
100
AcDbBlockBegin
  2
BOHRUNG2
 70
     0
 10
0.0
 20
0.0
 30
0.0
  3
BOHRUNG2
  1

  0
LWPOLYLINE
  5
12A
100
AcDbEntity
  8
0
  6
CONTINUOUS
 62
     7
100
AcDbPolyline
 90
        2
 70
     1
 10
8.0
 20
-3.160887
 10
8.0
 20
10.583333
  0
LWPOLYLINE
  5
12B
100
AcDbEntity
  8
0
  6
CONTINUOUS
 62
     7
100
AcDbPolyline
 90
        2
 70
     1
 10
0.0
 20
-3.160887
 10
0.0
 20
10.583333
  0
LINE
  5
12C
100
AcDbEntity
  8
0
  6
CONTINUOUS
 62
     7
100
AcDbLine
 10
16.46328
 20
1.072446
 30
0.0
 11
8.0
 21
1.072446
 31
0.0
  0
LINE
  5
12D
100
AcDbEntity
  8
0
  6
CONTINUOUS
 62
     7
100
AcDbLine
 10
-8.46328
 20
1.072446
 30
0.0
 11
0.0
 21
1.072446
 31
0.0
  0
MTEXT
  5
12E
100
AcDbEntity
  8
0
100
AcDbMText
 10
4.509091
 20
6.172011
 30
0.0
 40
3.081935
 41
21.468284
 71
     5
 72
     5
  1
\C7;\fArial|b0|i0|;\H3.0819353945553;\U+00D8 8,00mm
  0
ENDBLK
  5
12F
100
AcDbEntity
  8
0
100
AcDbBlockEnd
  0
BLOCK
  5
131
100
AcDbEntity
  8
0
100
AcDbBlockBegin
  2
TRENNER
 70
     2
 10
0.0
 20
0.0
 30
0.0
  3
TRENNER
  1

  0
LWPOLYLINE
  5
132
100
AcDbEntity
  8
0
  6
CONTINUOUS
 62
     7
100
AcDbPolyline
 90
        6
 70
     0
 10
10.0
 20
82.0
 10
2.184652
 20
58.553956
 42
0.267288
 10
4.570797
 20
46.819763
 10
9.978723
 20
40.69078
 42
-0.289686
 10
12.01041
 20
28.024289
 10
0.0
 20
0.0
  0
ENDBLK
  5
133
100
AcDbEntity
  8
0
100
AcDbBlockEnd
  0
BLOCK
  5
135
100
AcDbEntity
  8
0
100
AcDbBlockBegin
  2
KREIS_27
 70
     0
 10
0.0
 20
0.0
 30
0.0
  3
KREIS_27
  1

  0
LWPOLYLINE
  5
136
100
AcDbEntity
  8
0
  6
CONTINUOUS
 62
     7
100
AcDbPolyline
 90
        2
 70
     1
 10
-1.0
 20
0.0
 10
1.0
 20
0.0
  0
LWPOLYLINE
  5
137
100
AcDbEntity
  8
0
  6
CONTINUOUS
 62
     7
100
AcDbPolyline
 90
        2
 70
     1
 10
0.0
 20
-1.0
 10
0.0
 20
1.0
  0
LWPOLYLINE
  5
138
100
AcDbEntity
  8
0
  6
CONTINUOUS
 62
     7
100
AcDbPolyline
 90
        3
 70
     0
 10
25.0
 20
20.0
 10
20.0
 20
20.0
 10
3.535534
 20
3.535534
  0
MTEXT
  5
139
100
AcDbEntity
  8
0
100
AcDbMText
 10
32.504634
 20
20.0
 30
0.0
 40
4.109294
 41
15.009269
 71
     5
 72
     5
  1
\C7;\fArial|b0|i0|;\H4.1092942200601;\U+00D810,\P00m\Pm
  0
ENDBLK
  5
13A
100
AcDbEntity
  8
0
100
AcDbBlockEnd
  0
BLOCK
  5
13C
100
AcDbEntity
  8
0
100
AcDbBlockBegin
  2
BOHRUNG
 70
     2
 10
0.0
 20
0.0
 30
0.0
  3
BOHRUNG
  1

  0
LWPOLYLINE
  5
13D
100
AcDbEntity
  8
0
  6
CONTINUOUS
 62
     7
100
AcDbPolyline
 90
        3
 70
     0
 10
33.0
 20
0.0
 10
17.595238
 20
0.0
 10
0.0
 20
33.0
  0
MTEXT
  5
13E
100
AcDbEntity
  8
0
100
AcDbMText
 10
-19.192734
 20
0.0
 30
0.0
 40
3.081935
 41
38.385469
 71
     5
 72
     5
  1
\C7;\fArial|b0|i0|;\H3.0819353945553;\U+00D8 6 (Bohrungen \Pf\U+00FCr \PGeh\U+00E4useflansch)
  0
ENDBLK
  5
13F
100
AcDbEntity
  8
0
100
AcDbBlockEnd
  0
BLOCK
  5
141
100
AcDbEntity
  8
0
100
AcDbBlockBegin
  2
TEXT
 70
     0
 10
0.0
 20
0.0
 30
0.0
  3
TEXT
  1

  0
LWPOLYLINE
  5
142
100
AcDbEntity
  8
0
  6
CONTINUOUS
 62
     7
100
AcDbPolyline
 90
        4
 70
     1
 10
0.0
 20
0.0
 10
43.5
 20
0.0
 10
43.5
 20
25.0
 10
0.0
 20
25.0
  0
LINE
  5
143
100
AcDbEntity
  8
0
  6
CONTINUOUS
 62
     7
100
AcDbLine
 10
0.0
 20
20.0
 30
0.0
 11
43.5
 21
20.0
 31
0.0
  0
LINE
  5
144
100
AcDbEntity
  8
0
  6
CONTINUOUS
 62
     7
100
AcDbLine
 10
0.0
 20
15.0
 30
0.0
 11
43.5
 21
15.0
 31
0.0
  0
LINE
  5
145
100
AcDbEntity
  8
0
  6
CONTINUOUS
 62
     7
100
AcDbLine
 10
0.0
 20
10.0
 30
0.0
 11
43.5
 21
10.0
 31
0.0
  0
LINE
  5
146
100
AcDbEntity
  8
0
  6
CONTINUOUS
 62
     7
100
AcDbLine
 10
0.0
 20
5.0
 30
0.0
 11
43.5
 21
5.0
 31
0.0
  0
MTEXT
  5
147
100
AcDbEntity
  8
0
100
AcDbMText
 10
1.411111
 20
24.294444
 30
0.0
 40
4.109294
 41
43.5
 71
     1
 72
     5
  1
\C7;\fArial|b0|i0|;\H4.1092942200601;W\U+00E4hlen und \PText eingeben. \PZeilenabstand \Pmit \PKontrollpunkt \Panpassen.
  0
ENDBLK
  5
148
100
AcDbEntity
  8
0
100
AcDbBlockEnd
  0
BLOCK
  5
14A
100
AcDbEntity
  8
0
100
AcDbBlockBegin
  2
MASTER_30
 70
     0
 10
0.0
 20
0.0
 30
0.0
  3
MASTER_30
  1

  0
LWPOLYLINE
  5
14B
100
AcDbEntity
  8
0
  6
CONTINUOUS
 62
     7
100
AcDbPolyline
 90
        4
 70
     1
 10
0.0
 20
0.0
 10
40.0
 20
0.0
 10
40.0
 20
30.0
 10
0.0
 20
30.0
  0
ENDBLK
  5
14C
100
AcDbEntity
  8
0
100
AcDbBlockEnd
  0
BLOCK
  5
14E
100
AcDbEntity
  8
0
100
AcDbBlockBegin
  2
MASTER_31
 70
     0
 10
0.0
 20
0.0
 30
0.0
  3
MASTER_31
  1

  0
LWPOLYLINE
  5
14F
100
AcDbEntity
  8
0
  6
CONTINUOUS
 62
     7
100
AcDbPolyline
 90
        2
 70
     1
 10
0.0
 20
20.0
 42
-1.0
 10
40.0
 20
20.0
 42
-1.0
  0
ENDBLK
  5
150
100
AcDbEntity
  8
0
100
AcDbBlockEnd
  0
BLOCK
  5
152
100
AcDbEntity
  8
0
100
AcDbBlockBegin
  2
MASTER_32
 70
     0
 10
0.0
 20
0.0
 30
0.0
  3
MASTER_32
  1

  0
LWPOLYLINE
  5
153
100
AcDbEntity
  8
0
  6
CONTINUOUS
 62
     7
100
AcDbPolyline
 90
        4
 70
     1
 10
0.0
 20
0.0
 10
40.0
 20
0.0
 10
40.0
 20
30.0
 10
0.0
 20
30.0
  0
ENDBLK
  5
154
100
AcDbEntity
  8
0
100
AcDbBlockEnd
  0
BLOCK
  5
156
100
AcDbEntity
  8
0
100
AcDbBlockBegin
  2
P-LINIE
 70
     0
 10
0.0
 20
0.0
 30
0.0
  3
P-LINIE
  1

  0
LINE
  5
158
100
AcDbEntity
  8
0
  6
DASHEDX2
 62
     7
100
AcDbLine
 10
0.0
 20
12.7
 30
0.0
 11
86.0
 21
12.7
 31
0.0
  0
ENDBLK
  5
159
100
AcDbEntity
  8
0
100
AcDbBlockEnd
  0
BLOCK
  5
15B
100
AcDbEntity
  8
0
100
AcDbBlockBegin
  2
MASTER_34
 70
     0
 10
0.0
 20
0.0
 30
0.0
  3
MASTER_34
  1

  0
LWPOLYLINE
  5
15C
100
AcDbEntity
  8
0
  6
CONTINUOUS
 62
     7
100
AcDbPolyline
 90
        2
 70
     1
 10
0.0
 20
20.0
 42
-1.0
 10
40.0
 20
20.0
 42
-1.0
  0
ENDBLK
  5
15D
100
AcDbEntity
  8
0
100
AcDbBlockEnd
  0
BLOCK
  5
15F
100
AcDbEntity
  8
0
100
AcDbBlockBegin
  2
RECTANGLE_153
 70
     0
 10
0.0
 20
0.0
 30
0.0
  3
RECTANGLE_153
  1

  0
LWPOLYLINE
  5
160
100
AcDbEntity
  8
0
  6
CONTINUOUS
 62
     7
100
AcDbPolyline
 90
        4
 70
     1
 10
30.0
 20
35.0
 10
70.0
 20
35.0
 10
70.0
 20
65.0
 10
30.0
 20
65.0
  0
ENDBLK
  5
161
100
AcDbEntity
  8
0
100
AcDbBlockEnd
  0
BLOCK
  5
163
100
AcDbEntity
  8
0
100
AcDbBlockBegin
  2
CIRCLE_168
 70
     0
 10
0.0
 20
0.0
 30
0.0
  3
CIRCLE_168
  1

  0
LWPOLYLINE
  5
164
100
AcDbEntity
  8
0
  6
CONTINUOUS
 62
     7
100
AcDbPolyline
 90
        2
 70
     1
 10
30.0
 20
50.0
 42
-1.0
 10
70.0
 20
50.0
 42
-1.0
  0
ENDBLK
  5
165
100
AcDbEntity
  8
0
100
AcDbBlockEnd
  0
BLOCK
  5
167
100
AcDbEntity
  8
0
100
AcDbBlockBegin
  2
MASTER_37
 70
     0
 10
0.0
 20
0.0
 30
0.0
  3
MASTER_37
  1

  0
LWPOLYLINE
  5
168
100
AcDbEntity
  8
0
  6
CONTINUOUS
 62
     7
100
AcDbPolyline
 90
        3
 70
     1
 10
43.094011
 20
0.0
 10
20.0
 20
40.0
 10
-3.094011
 20
0.0
  0
ENDBLK
  5
169
100
AcDbEntity
  8
0
100
AcDbBlockEnd
  0
BLOCK
  5
16B
100
AcDbEntity
  8
0
100
AcDbBlockBegin
  2
M-LINIE_193
 70
     0
 10
0.0
 20
0.0
 30
0.0
  3
M-LINIE_193
  1

  0
LINE
  5
16C
100
AcDbEntity
  8
0
  6
DASHDOT
 62
     7
100
AcDbLine
 10
0.0
 20
12.7
 30
0.0
 11
86.0
 21
12.7
 31
0.0
  0
ENDBLK
  5
16D
100
AcDbEntity
  8
0
100
AcDbBlockEnd
  0
BLOCK
  5
16F
100
AcDbEntity
  8
0
100
AcDbBlockBegin
  2
FLEX
 70
     0
 10
0.0
 20
0.0
 30
0.0
  3
FLEX
  1

  0
LWPOLYLINE
  5
170
100
AcDbEntity
  8
0
  6
CONTINUOUS
 62
     7
100
AcDbPolyline
 90
        2
 70
     1
 10
29.5
 20
-7.416667
 10
29.5
 20
11.641667
  0
LWPOLYLINE
  5
171
100
AcDbEntity
  8
0
  6
CONTINUOUS
 62
     7
100
AcDbPolyline
 90
        2
 70
     1
 10
0.0
 20
-7.416667
 10
0.0
 20
11.641667
  0
LINE
  5
172
100
AcDbEntity
  8
0
  6
CONTINUOUS
 62
     7
100
AcDbLine
 10
14.75
 20
-5.3
 30
0.0
 11
29.5
 21
-5.3
 31
0.0
  0
LINE
  5
173
100
AcDbEntity
  8
0
  6
CONTINUOUS
 62
     7
100
AcDbLine
 10
14.75
 20
-5.3
 30
0.0
 11
0.0
 21
-5.3
 31
0.0
  0
MTEXT
  5
174
100
AcDbEntity
  8
0
100
AcDbMText
 10
7.5
 20
-3.500218
 30
0.0
 40
3.081935
 41
9.676842
 71
     5
 72
     5
  1
\C7;\fArial|b0|i0|;\H3.0819353945553;29,5\P0mm
  0
ENDBLK
  5
175
100
AcDbEntity
  8
0
100
AcDbBlockEnd
  0
BLOCK
  5
177
100
AcDbEntity
  8
0
100
AcDbBlockBegin
  2
MASTER_40
 70
     2
 10
0.0
 20
0.0
 30
0.0
  3
MASTER_40
  1

  0
LWPOLYLINE
  5
178
100
AcDbEntity
  8
0
  6
CONTINUOUS
 62
     6
100
AcDbPolyline
 90
        4
 70
     1
 10
5.0
 20
5.0
 10
292.0
 20
5.0
 10
292.0
 20
215.396463
 10
5.0
 20
215.396463
  0
LINE
  5
179
100
AcDbEntity
  8
0
  6
CONTINUOUS
 62
     7
100
AcDbLine
 10
44.625
 20
210.396463
 30
0.0
 11
44.625
 21
215.396463
 31
0.0
  0
LINE
  5
17A
100
AcDbEntity
  8
0
  6
CONTINUOUS
 62
     7
100
AcDbLine
 10
79.25
 20
210.396463
 30
0.0
 11
79.25
 21
215.396463
 31
0.0
  0
LINE
  5
17B
100
AcDbEntity
  8
0
  6
CONTINUOUS
 62
     7
100
AcDbLine
 10
113.875
 20
210.396463
 30
0.0
 11
113.875
 21
215.396463
 31
0.0
  0
LINE
  5
17C
100
AcDbEntity
  8
0
  6
CONTINUOUS
 62
     7
100
AcDbLine
 10
148.5
 20
210.396463
 30
0.0
 11
148.5
 21
215.396463
 31
0.0
  0
LINE
  5
17D
100
AcDbEntity
  8
0
  6
CONTINUOUS
 62
     7
100
AcDbLine
 10
183.125
 20
210.396463
 30
0.0
 11
183.125
 21
215.396463
 31
0.0
  0
LINE
  5
17E
100
AcDbEntity
  8
0
  6
CONTINUOUS
 62
     7
100
AcDbLine
 10
217.75
 20
210.396463
 30
0.0
 11
217.75
 21
215.396463
 31
0.0
  0
LINE
  5
17F
100
AcDbEntity
  8
0
  6
CONTINUOUS
 62
     7
100
AcDbLine
 10
252.375
 20
210.396463
 30
0.0
 11
252.375
 21
215.396463
 31
0.0
  0
LINE
  5
180
100
AcDbEntity
  8
0
  6
CONTINUOUS
 62
     7
100
AcDbLine
 10
44.625
 20
10.0
 30
0.0
 11
44.625
 21
5.0
 31
0.0
  0
LINE
  5
181
100
AcDbEntity
  8
0
  6
CONTINUOUS
 62
     7
100
AcDbLine
 10
79.25
 20
10.0
 30
0.0
 11
79.25
 21
5.0
 31
0.0
  0
LINE
  5
182
100
AcDbEntity
  8
0
  6
CONTINUOUS
 62
     7
100
AcDbLine
 10
113.875
 20
10.0
 30
0.0
 11
113.875
 21
5.0
 31
0.0
  0
LINE
  5
183
100
AcDbEntity
  8
0
  6
CONTINUOUS
 62
     7
100
AcDbLine
 10
148.5
 20
10.0
 30
0.0
 11
148.5
 21
5.0
 31
0.0
  0
LINE
  5
184
100
AcDbEntity
  8
0
  6
CONTINUOUS
 62
     7
100
AcDbLine
 10
183.125
 20
10.0
 30
0.0
 11
183.125
 21
5.0
 31
0.0
  0
LINE
  5
185
100
AcDbEntity
  8
0
  6
CONTINUOUS
 62
     7
100
AcDbLine
 10
217.75
 20
10.0
 30
0.0
 11
217.75
 21
5.0
 31
0.0
  0
LINE
  5
186
100
AcDbEntity
  8
0
  6
CONTINUOUS
 62
     7
100
AcDbLine
 10
252.375
 20
10.0
 30
0.0
 11
252.375
 21
5.0
 31
0.0
  0
LINE
  5
187
100
AcDbEntity
  8
0
  6
CONTINUOUS
 62
     7
100
AcDbLine
 10
10.0
 20
185.346905
 30
0.0
 11
5.0
 21
185.346905
 31
0.0
  0
LINE
  5
188
100
AcDbEntity
  8
0
  6
CONTINUOUS
 62
     7
100
AcDbLine
 10
10.0
 20
160.297347
 30
0.0
 11
5.0
 21
160.297347
 31
0.0
  0
LINE
  5
189
100
AcDbEntity
  8
0
  6
CONTINUOUS
 62
     7
100
AcDbLine
 10
10.0
 20
135.247789
 30
0.0
 11
5.0
 21
135.247789
 31
0.0
  0
LINE
  5
18A
100
AcDbEntity
  8
0
  6
CONTINUOUS
 62
     7
100
AcDbLine
 10
10.0
 20
110.198231
 30
0.0
 11
5.0
 21
110.198231
 31
0.0
  0
LINE
  5
18B
100
AcDbEntity
  8
0
  6
CONTINUOUS
 62
     7
100
AcDbLine
 10
10.0
 20
85.148674
 30
0.0
 11
5.0
 21
85.148674
 31
0.0
  0
LINE
  5
18C
100
AcDbEntity
  8
0
  6
CONTINUOUS
 62
     7
100
AcDbLine
 10
10.0
 20
60.099116
 30
0.0
 11
5.0
 21
60.099116
 31
0.0
  0
LINE
  5
18D
100
AcDbEntity
  8
0
  6
CONTINUOUS
 62
     7
100
AcDbLine
 10
10.0
 20
35.049558
 30
0.0
 11
5.0
 21
35.049558
 31
0.0
  0
LINE
  5
18E
100
AcDbEntity
  8
0
  6
CONTINUOUS
 62
     7
100
AcDbLine
 10
287.0
 20
185.346905
 30
0.0
 11
292.0
 21
185.346905
 31
0.0
  0
LINE
  5
18F
100
AcDbEntity
  8
0
  6
CONTINUOUS
 62
     7
100
AcDbLine
 10
287.0
 20
160.297347
 30
0.0
 11
292.0
 21
160.297347
 31
0.0
  0
LINE
  5
190
100
AcDbEntity
  8
0
  6
CONTINUOUS
 62
     7
100
AcDbLine
 10
287.0
 20
135.247789
 30
0.0
 11
292.0
 21
135.247789
 31
0.0
  0
LINE
  5
191
100
AcDbEntity
  8
0
  6
CONTINUOUS
 62
     7
100
AcDbLine
 10
287.0
 20
110.198231
 30
0.0
 11
292.0
 21
110.198231
 31
0.0
  0
LINE
  5
192
100
AcDbEntity
  8
0
  6
CONTINUOUS
 62
     7
100
AcDbLine
 10
287.0
 20
85.148674
 30
0.0
 11
292.0
 21
85.148674
 31
0.0
  0
LINE
  5
193
100
AcDbEntity
  8
0
  6
CONTINUOUS
 62
     7
100
AcDbLine
 10
287.0
 20
60.099116
 30
0.0
 11
292.0
 21
60.099116
 31
0.0
  0
LINE
  5
194
100
AcDbEntity
  8
0
  6
CONTINUOUS
 62
     7
100
AcDbLine
 10
287.0
 20
35.049558
 30
0.0
 11
292.0
 21
35.049558
 31
0.0
  0
LWPOLYLINE
  5
195
100
AcDbEntity
  8
0
  6
CONTINUOUS
 62
     7
100
AcDbPolyline
 90
        4
 70
     1
 10
10.0
 20
210.396463
 10
10.0
 20
10.0
 10
287.0
 20
10.0
 10
287.0
 20
210.396463
  0
MTEXT
  5
196
100
AcDbEntity
  8
0
100
AcDbMText
 10
289.5
 20
213.966627
 30
0.0
 40
6.164012
 41
5.0
 71
     2
 72
     5
  1
\C7;\fArial|b0|i0|;\H6.1640118710697;H\PG\PF\PE\PD\PC\PB\PA\P
  0
MTEXT
  5
197
100
AcDbEntity
  8
0
100
AcDbMText
 10
5.0
 20
7.5
 30
0.0
 40
6.164012
 41
287.0
 71
     4
 72
     5
  1
\C7;\fArial|b0|i0|;\H6.1640118710697;87654\P321
  0
MTEXT
  5
198
100
AcDbEntity
  8
0
100
AcDbMText
 10
7.5
 20
213.966627
 30
0.0
 40
6.164012
 41
5.0
 71
     2
 72
     5
  1
\C7;\fArial|b0|i0|;\H6.1640118710697;H\PG\PF\PE\PD\PC\PB\PA\P
  0
MTEXT
  5
199
100
AcDbEntity
  8
0
100
AcDbMText
 10
5.0
 20
212.896463
 30
0.0
 40
6.164012
 41
287.0
 71
     4
 72
     5
  1
\C7;\fArial|b0|i0|;\H6.1640118710697;87654\P321
  0
ENDBLK
  5
19A
100
AcDbEntity
  8
0
100
AcDbBlockEnd
  0
BLOCK
  5
19C
100
AcDbEntity
  8
0
100
AcDbBlockBegin
  2
MASTER_41
 70
     0
 10
0.0
 20
0.0
 30
0.0
  3
MASTER_41
  1

  0
LWPOLYLINE
  5
19D
100
AcDbEntity
  8
0
  6
CONTINUOUS
 62
     7
100
AcDbPolyline
 90
        3
 70
     0
 10
33.0
 20
0.0
 10
18.0
 20
0.0
 10
0.0
 20
33.0
  0
MTEXT
  5
19E
100
AcDbEntity
  8
0
100
AcDbMText
 10
-3.425577
 20
0.0
 30
0.0
 40
3.081935
 41
6.851153
 71
     5
 72
     5
  1
\C7;\fArial|b0|i0|;\H3.0819353945553;x\Px\Px
  0
ENDBLK
  5
19F
100
AcDbEntity
  8
0
100
AcDbBlockEnd
  0
BLOCK
  5
1A1
100
AcDbEntity
  8
0
100
AcDbBlockBegin
  2
MASTER_42
 70
     0
 10
0.0
 20
0.0
 30
0.0
  3
MASTER_42
  1

  0
LWPOLYLINE
  5
1A2
100
AcDbEntity
  8
0
  6
CONTINUOUS
 62
     7
100
AcDbPolyline
 90
        2
 70
     1
 10
2.877778
 20
0.0
 10
11.288889
 20
0.0
  0
LWPOLYLINE
  5
1A3
100
AcDbEntity
  8
0
  6
CONTINUOUS
 62
     7
100
AcDbPolyline
 90
        2
 70
     1
 10
2.877778
 20
25.0
 10
11.288889
 20
25.0
  0
LINE
  5
1A4
100
AcDbEntity
  8
0
  6
CONTINUOUS
 62
     7
100
AcDbLine
 10
5.7
 20
12.5
 30
0.0
 11
5.7
 21
0.0
 31
0.0
  0
LINE
  5
1A5
100
AcDbEntity
  8
0
  6
CONTINUOUS
 62
     7
100
AcDbLine
 10
5.7
 20
12.5
 30
0.0
 11
5.7
 21
25.0
 31
0.0
  0
MTEXT
  5
1A6
100
AcDbEntity
  8
0
100
AcDbMText
 10
3.300483
 20
12.5
 30
0.0
 40
4.109294
 41
12.814054
 71
     5
 72
     5
  1
\C7;\fArial|b0|i0|;\H4.1092942200601;25,0\P0mm
 11
0.0
 21
1.0
 31
0.0
  0
ENDBLK
  5
1A7
100
AcDbEntity
  8
0
100
AcDbBlockEnd
  0
BLOCK
  5
1A9
100
AcDbEntity
  8
0
100
AcDbBlockBegin
  2
MASTER_43
 70
     2
 10
0.0
 20
0.0
 30
0.0
  3
MASTER_43
  1

  0
ATTDEF
  5
1AA
100
AcDbEntity
  8
0
100
AcDbText
 10
16.5
 20
12.7
 30
0.0
 40
0.2
  1
0.00
100
AcDbAttributeDefinition
  3
Genauigkeit
  2
LPREC
 70
     0
  0
ATTDEF
  5
1AB
100
AcDbEntity
  8
0
100
AcDbText
 10
16.5
 20
12.7
 30
0.0
 40
0.2
  1
 Einheiten des Zeichenblattes verwenden
100
AcDbAttributeDefinition
  3
Ma\U+00DFeinheiten
  2
LUNITS
 70
     0
  0
ATTDEF
  5
1AC
100
AcDbEntity
  8
0
100
AcDbText
 10
16.5
 20
12.7
 30
0.0
 40
0.2
  1
Ma\U+00DFeinheiten anzeigen
100
AcDbAttributeDefinition
  3
Ma\U+00DFeinheiten-Anzeige
  2
SHOWUNITS
 70
     0
  0
ATTDEF
  5
1AD
100
AcDbEntity
  8
0
100
AcDbText
 10
16.5
 20
12.7
 30
0.0
 40
0.2
  1
Beide
100
AcDbAttributeDefinition
  3
Erweiterungslinien
  2
EXTENSIONS
 70
     0
  0
LWPOLYLINE
  5
1AE
100
AcDbEntity
  8
0
  6
CONTINUOUS
 62
     7
100
AcDbPolyline
 90
        2
 70
     1
 10
16.5
 20
-3.416667
 10
16.5
 20
11.641667
  0
LWPOLYLINE
  5
1AF
100
AcDbEntity
  8
0
  6
CONTINUOUS
 62
     7
100
AcDbPolyline
 90
        2
 70
     1
 10
0.0
 20
-3.416667
 10
0.0
 20
11.641667
  0
LINE
  5
1B0
100
AcDbEntity
  8
0
  6
CONTINUOUS
 62
     7
100
AcDbLine
 10
8.25
 20
-1.3
 30
0.0
 11
16.5
 21
-1.3
 31
0.0
  0
LINE
  5
1B1
100
AcDbEntity
  8
0
  6
CONTINUOUS
 62
     7
100
AcDbLine
 10
8.25
 20
-1.3
 30
0.0
 11
0.0
 21
-1.3
 31
0.0
  0
MTEXT
  5
1B2
100
AcDbEntity
  8
0
100
AcDbMText
 10
8.5
 20
0.499782
 30
0.0
 40
3.081935
 41
11.911299
 71
     5
 72
     5
  1
\C7;\fArial|b0|i0|;\H3.0819353945553;\U+00D8 \P16,50\Pmm
  0
ENDBLK
  5
1B3
100
AcDbEntity
  8
0
100
AcDbBlockEnd
  0
BLOCK
  5
1B5
100
AcDbEntity
  8
0
100
AcDbBlockBegin
  2
FLACHKOPF_OBEN
 70
     2
 10
0.0
 20
0.0
 30
0.0
  3
FLACHKOPF_OBEN
  1

  0
ATTDEF
  5
1B6
100
AcDbEntity
  8
0
100
AcDbText
 10
25.0
 20
25.0
 30
0.0
 40
0.2
  1
M5
100
AcDbAttributeDefinition
  3
Gewindedurchmesser
  2
THREAD
 70
     0
  0
ATTDEF
  5
1B7
100
AcDbEntity
  8
0
100
AcDbText
 10
25.0
 20
25.0
 30
0.0
 40
0.2
  1
0.19685039370079
100
AcDbAttributeDefinition
  3
Durchmesser
  2
DIAMETER
 70
     0
  0
LWPOLYLINE
  5
1B8
100
AcDbEntity
  8
0
  6
CONTINUOUS
 62
     7
100
AcDbPolyline
 90
        2
 70
     1
 10
20.0
 20
25.0
 42
-1.0
 10
30.0
 20
25.0
 42
-1.0
  0
LINE
  5
1B9
100
AcDbEntity
  8
0
  6
CONTINUOUS
 62
     7
100
AcDbLine
 10
21.05
 20
21.94
 30
0.0
 11
28.06
 21
28.95
 31
0.0
  0
LINE
  5
1BA
100
AcDbEntity
  8
0
  6
CONTINUOUS
 62
     7
100
AcDbLine
 10
28.94
 20
28.06
 30
0.0
 11
21.94
 21
21.06
 31
0.0
  0
LWPOLYLINE
  5
1BC
100
AcDbEntity
  8
0
  6
DOT
 62
     7
100
AcDbPolyline
 90
        2
 70
     1
 10
22.5
 20
25.0
 42
-1.0
 10
27.5
 20
25.0
 42
-1.0
  0
LWPOLYLINE
  5
1BD
100
AcDbEntity
  8
0
  6
DOT
 62
     7
100
AcDbPolyline
 90
        2
 70
     1
 10
23.25
 20
25.0
 42
-1.0
 10
26.75
 20
25.0
 42
-1.0
  0
ENDBLK
  5
1BE
100
AcDbEntity
  8
0
100
AcDbBlockEnd
  0
BLOCK
  5
1C0
100
AcDbEntity
  8
0
100
AcDbBlockBegin
  2
MASTER_45
 70
     0
 10
0.0
 20
0.0
 30
0.0
  3
MASTER_45
  1

  0
LINE
  5
1C1
100
AcDbEntity
  8
0
  6
DASHEDX2
 62
     7
100
AcDbLine
 10
0.0
 20
12.7
 30
0.0
 11
86.0
 21
12.7
 31
0.0
  0
ENDBLK
  5
1C2
100
AcDbEntity
  8
0
100
AcDbBlockEnd
  0
BLOCK
  5
1C4
100
AcDbEntity
  8
0
100
AcDbBlockBegin
  2
ACHTECK
 70
     0
 10
0.0
 20
0.0
 30
0.0
  3
ACHTECK
  1

  0
LWPOLYLINE
  5
1C5
100
AcDbEntity
  8
0
  6
CONTINUOUS
 62
     7
100
AcDbPolyline
 90
        8
 70
     1
 10
58.284272
 20
70.0
 10
41.715728
 20
70.0
 10
30.0
 20
58.284272
 10
30.0
 20
41.715728
 10
41.715728
 20
30.0
 10
58.284272
 20
30.0
 10
70.0
 20
41.715728
 10
70.0
 20
58.284272
  0
ENDBLK
  5
1C6
100
AcDbEntity
  8
0
100
AcDbBlockEnd
  0
BLOCK
  5
1C8
100
AcDbEntity
  8
0
100
AcDbBlockBegin
  2
MASTER_47
 70
     0
 10
0.0
 20
0.0
 30
0.0
  3
MASTER_47
  1

  0
LWPOLYLINE
  5
1C9
100
AcDbEntity
  8
0
  6
CONTINUOUS
 62
     7
100
AcDbPolyline
 90
        4
 70
     1
 10
62.5
 20
-2.5
 10
63.5
 20
-2.5
 10
63.5
 20
7.5
 10
62.5
 20
7.5
  0
LINE
  5
1CA
100
AcDbEntity
  8
0
  6
DOT
 62
     7
100
AcDbLine
 10
62.5
 20
-0.125
 30
0.0
 11
63.5
 21
-0.125
 31
0.0
  0
LINE
  5
1CB
100
AcDbEntity
  8
0
  6
DOT
 62
     7
100
AcDbLine
 10
62.5
 20
5.125
 30
0.0
 11
63.5
 21
5.125
 31
0.0
  0
LWPOLYLINE
  5
1CC
100
AcDbEntity
  8
0
  6
CONTINUOUS
 62
     7
100
AcDbPolyline
 90
        6
 70
     1
 10
53.0
 20
-2.5
 10
53.5
 20
-2.5
 10
53.5
 20
7.5
 10
53.0
 20
7.5
 10
52.5
 20
6.386956
 10
52.5
 20
-1.386956
  0
LINE
  5
1CD
100
AcDbEntity
  8
0
  6
CONTINUOUS
 62
     7
100
AcDbLine
 10
53.0
 20
-2.5
 30
0.0
 11
53.0
 21
7.5
 31
0.0
  0
LINE
  5
1CE
100
AcDbEntity
  8
0
  6
DOT
 62
     7
100
AcDbLine
 10
52.5
 20
-0.125
 30
0.0
 11
53.5
 21
-0.125
 31
0.0
  0
LINE
  5
1CF
100
AcDbEntity
  8
0
  6
DOT
 62
     7
100
AcDbLine
 10
52.5
 20
5.125
 30
0.0
 11
53.5
 21
5.125
 31
0.0
  0
LWPOLYLINE
  5
1D0
100
AcDbEntity
  8
0
  6
CONTINUOUS
 62
     7
100
AcDbPolyline
 90
        2
 70
     1
 10
72.5
 20
2.5
 42
1.0
 10
82.5
 20
2.5
 42
1.0
  0
LWPOLYLINE
  5
1D1
100
AcDbEntity
  8
0
  6
CONTINUOUS
 62
     7
100
AcDbPolyline
 90
        2
 70
     1
 10
74.875
 20
2.5
 42
1.0
 10
80.125
 20
2.5
 42
1.0
  0
LWPOLYLINE
  5
1D2
100
AcDbEntity
  8
0
  6
CONTINUOUS
 62
     7
100
AcDbPolyline
 90
        2
 70
     1
 10
32.5
 20
2.5
 42
1.0
 10
42.5
 20
2.5
 42
1.0
  0
LWPOLYLINE
  5
1D3
100
AcDbEntity
  8
0
  6
CONTINUOUS
 62
     7
100
AcDbPolyline
 90
        2
 70
     1
 10
34.875
 20
2.5
 42
1.0
 10
40.125
 20
2.5
 42
1.0
  0
LWPOLYLINE
  5
1D4
100
AcDbEntity
  8
0
  6
CONTINUOUS
 62
     7
100
AcDbPolyline
 90
        2
 70
     1
 10
33.4
 20
2.5
 42
1.0
 10
41.6
 20
2.5
 42
1.0
  0
LINE
  5
1D5
100
AcDbEntity
  8
0
  6
CONTINUOUS
 62
     7
100
AcDbLine
 10
65.875
 20
28.125
 30
0.0
 11
69.125
 21
28.125
 31
0.0
  0
LINE
  5
1D6
100
AcDbEntity
  8
0
  6
CONTINUOUS
 62
     7
100
AcDbLine
 10
65.875
 20
31.875
 30
0.0
 11
69.125
 21
31.875
 31
0.0
  0
LWPOLYLINE
  5
1D7
100
AcDbEntity
  8
0
  6
CONTINUOUS
 62
     7
100
AcDbPolyline
 90
        8
 70
     0
 10
65.875
 20
25.4
 42
-0.277858
 10
65.875
 20
28.125
 42
-0.2
 10
65.875
 20
31.875
 42
-0.277858
 10
65.875
 20
34.6
 10
69.125
 20
34.6
 42
-0.277858
 10
69.125
 20
31.875
 42
-0.2
 10
69.125
 20
28.125
 42
-0.277858
 10
69.125
 20
25.4
  0
LWPOLYLINE
  5
1D8
100
AcDbEntity
  8
0
  6
CONTINUOUS
 62
     7
100
AcDbPolyline
 90
        8
 70
     1
 10
65.875
 20
25.4
 10
65.5
 20
25.95
 10
65.5
 20
34.05
 10
65.875
 20
34.6
 10
69.125
 20
34.6
 10
69.5
 20
34.05
 42
-0.925926
 10
69.5
 20
25.95
 10
69.125
 20
25.4
  0
LINE
  5
1D9
100
AcDbEntity
  8
0
  6
DOT
 62
     7
100
AcDbLine
 10
69.5
 20
32.5
 30
0.0
 11
65.5
 21
32.5
 31
0.0
  0
LINE
  5
1DA
100
AcDbEntity
  8
0
  6
DOT
 62
     7
100
AcDbLine
 10
69.5
 20
27.5
 30
0.0
 11
65.5
 21
27.5
 31
0.0
  0
ARC
  5
1DB
100
AcDbEntity
  8
0
  6
DOT
 62
     7
100
AcDbCircle
 10
69.5
 20
30.0
 30
0.0
 40
2.5
100
AcDbArc
 50
270.0
 51
90.0
  0
ARC
  5
1DC
100
AcDbEntity
  8
0
  6
CONTINUOUS
 62
     7
100
AcDbCircle
 10
35.0
 20
30.0
 30
0.0
 40
4.0
100
AcDbArc
 50
0.0
 51
180.0
  0
ARC
  5
1DD
100
AcDbEntity
  8
0
  6
CONTINUOUS
 62
     7
100
AcDbCircle
 10
35.0
 20
30.0
 30
0.0
 40
4.0
100
AcDbArc
 50
180.0
 51
0.0
  0
LWPOLYLINE
  5
1DE
100
AcDbEntity
  8
0
  6
CONTINUOUS
 62
     7
100
AcDbPolyline
 90
        6
 70
     1
 10
31.0
 20
27.690599
 10
31.0
 20
32.309401
 10
35.0
 20
34.618802
 10
39.0
 20
32.309401
 10
39.0
 20
27.690599
 10
35.0
 20
25.381198
  0
LWPOLYLINE
  5
1DF
100
AcDbEntity
  8
0
  6
DOT
 62
     7
100
AcDbPolyline
 90
        2
 70
     1
 10
32.5
 20
30.0
 42
-1.0
 10
37.5
 20
30.0
 42
-1.0
  0
LWPOLYLINE
  5
1E0
100
AcDbEntity
  8
0
  6
DOT
 62
     7
100
AcDbPolyline
 90
        2
 70
     1
 10
33.25
 20
30.0
 42
-1.0
 10
36.75
 20
30.0
 42
-1.0
  0
LINE
  5
1E1
100
AcDbEntity
  8
0
  6
CONTINUOUS
 62
     7
100
AcDbLine
 10
-0.458333
 20
32.3
 30
0.0
 11
2.5
 21
32.3
 31
0.0
  0
LINE
  5
1E2
100
AcDbEntity
  8
0
  6
CONTINUOUS
 62
     7
100
AcDbLine
 10
-0.458333
 20
27.7
 30
0.0
 11
2.5
 21
27.7
 31
0.0
  0
LWPOLYLINE
  5
1E3
100
AcDbEntity
  8
0
  6
CONTINUOUS
 62
     7
100
AcDbPolyline
 90
        4
 70
     0
 10
-0.458333
 20
34.6
 42
0.327345
 10
-0.458333
 20
32.3
 42
0.163043
 10
-0.458333
 20
27.7
 42
0.327345
 10
-0.458333
 20
25.4
  0
LWPOLYLINE
  5
1E4
100
AcDbEntity
  8
0
  6
CONTINUOUS
 62
     7
100
AcDbPolyline
 90
        6
 70
     1
 10
-0.458333
 20
34.6
 10
-0.833333
 20
34.05
 10
-0.833333
 20
25.95
 10
-0.458333
 20
25.4
 10
2.5
 20
25.4
 10
2.5
 20
34.6
  0
LINE
  5
1E5
100
AcDbEntity
  8
0
  6
CONTINUOUS
 62
     7
100
AcDbLine
 10
16.75
 20
32.5
 30
0.0
 11
16.75
 21
27.5
 31
0.0
  0
LINE
  5
1E6
100
AcDbEntity
  8
0
  6
CONTINUOUS
 62
     7
100
AcDbLine
 10
5.0
 20
32.5
 30
0.0
 11
5.0
 21
27.5
 31
0.0
  0
LWPOLYLINE
  5
1E7
100
AcDbEntity
  8
0
  6
CONTINUOUS
 62
     7
100
AcDbPolyline
 90
        6
 70
     1
 10
2.5
 20
32.5
 10
16.75
 20
32.5
 10
17.5
 20
31.75
 10
17.5
 20
28.25
 10
16.75
 20
27.5
 10
2.5
 20
27.5
  0
LWPOLYLINE
  5
1E8
100
AcDbEntity
  8
0
  6
CONTINUOUS
 62
     7
100
AcDbPolyline
 90
        3
 70
     0
 10
3.700962
 20
27.5
 10
5.0
 20
28.25
 10
17.5
 20
28.25
  0
LWPOLYLINE
  5
1E9
100
AcDbEntity
  8
0
  6
CONTINUOUS
 62
     7
100
AcDbPolyline
 90
        3
 70
     0
 10
3.700962
 20
32.5
 10
5.0
 20
31.75
 10
17.5
 20
31.75
  0
LINE
  5
1EA
100
AcDbEntity
  8
0
  6
CONTINUOUS
 62
     7
100
AcDbLine
 10
14.25
 20
20.0
 30
0.0
 11
14.25
 21
15.0
 31
0.0
  0
LINE
  5
1EB
100
AcDbEntity
  8
0
  6
CONTINUOUS
 62
     7
100
AcDbLine
 10
5.0
 20
20.0
 30
0.0
 11
5.0
 21
15.0
 31
0.0
  0
LWPOLYLINE
  5
1EC
100
AcDbEntity
  8
0
  6
CONTINUOUS
 62
     7
100
AcDbPolyline
 90
       12
 70
     1
 10
2.5
 20
20.0
 10
14.25
 20
20.0
 10
15.0
 20
19.25
 10
15.0
 20
15.75
 10
14.25
 20
15.0
 10
2.5
 20
15.0
 10
0.0
 20
12.5
 10
0.0
 20
16.875
 10
1.25
 20
16.875
 10
1.25
 20
18.125
 10
0.0
 20
18.125
 10
0.0
 20
22.5
  0
LINE
  5
1ED
100
AcDbEntity
  8
0
  6
CONTINUOUS
 62
     7
100
AcDbLine
 10
2.5
 20
15.0
 30
0.0
 11
2.5
 21
20.0
 31
0.0
  0
LWPOLYLINE
  5
1EE
100
AcDbEntity
  8
0
  6
CONTINUOUS
 62
     7
100
AcDbPolyline
 90
        3
 70
     0
 10
3.700962
 20
15.0
 10
5.0
 20
15.75
 10
15.0
 20
15.75
  0
LWPOLYLINE
  5
1EF
100
AcDbEntity
  8
0
  6
CONTINUOUS
 62
     7
100
AcDbPolyline
 90
        3
 70
     0
 10
3.700962
 20
20.0
 10
5.0
 20
19.25
 10
15.0
 20
19.25
  0
LWPOLYLINE
  5
1F0
100
AcDbEntity
  8
0
  6
CONTINUOUS
 62
     7
100
AcDbPolyline
 90
        6
 70
     1
 10
-1.875
 20
6.5
 10
-2.5
 20
5.875
 10
-2.5
 20
-0.875
 10
-1.875
 20
-1.5
 10
2.5
 20
-1.5
 10
2.5
 20
6.5
  0
LINE
  5
1F1
100
AcDbEntity
  8
0
  6
CONTINUOUS
 62
     7
100
AcDbLine
 10
-1.875
 20
6.5
 30
0.0
 11
-1.875
 21
-1.5
 31
0.0
  0
LINE
  5
1F2
100
AcDbEntity
  8
0
  6
CONTINUOUS
 62
     7
100
AcDbLine
 10
16.75
 20
5.0
 30
0.0
 11
16.75
 21
0.0
 31
0.0
  0
LINE
  5
1F3
100
AcDbEntity
  8
0
  6
CONTINUOUS
 62
     7
100
AcDbLine
 10
5.0
 20
5.0
 30
0.0
 11
5.0
 21
0.0
 31
0.0
  0
LWPOLYLINE
  5
1F4
100
AcDbEntity
  8
0
  6
CONTINUOUS
 62
     7
100
AcDbPolyline
 90
        6
 70
     1
 10
2.5
 20
5.0
 10
16.75
 20
5.0
 10
17.5
 20
4.25
 10
17.5
 20
0.75
 10
16.75
 20
0.0
 10
2.5
 20
0.0
  0
LWPOLYLINE
  5
1F5
100
AcDbEntity
  8
0
  6
CONTINUOUS
 62
     7
100
AcDbPolyline
 90
        3
 70
     0
 10
3.700962
 20
0.0
 10
5.0
 20
0.75
 10
17.5
 20
0.75
  0
LWPOLYLINE
  5
1F6
100
AcDbEntity
  8
0
  6
CONTINUOUS
 62
     7
100
AcDbPolyline
 90
        3
 70
     0
 10
3.700962
 20
5.0
 10
5.0
 20
4.25
 10
17.5
 20
4.25
  0
LWPOLYLINE
  5
1F7
100
AcDbEntity
  8
0
  6
DOT
 62
     7
100
AcDbPolyline
 90
        5
 70
     0
 10
-2.5
 20
5.0
 10
0.5
 20
5.0
 10
1.25
 20
2.5
 10
0.5
 20
0.0
 10
-2.5
 20
0.0
  0
LINE
  5
1F8
100
AcDbEntity
  8
0
  6
DOT
 62
     7
100
AcDbLine
 10
0.5
 20
5.0
 30
0.0
 11
0.5
 21
0.0
 31
0.0
  0
LINE
  5
1F9
100
AcDbEntity
  8
0
  6
DOT
 62
     7
100
AcDbLine
 10
-2.5
 20
3.6075
 30
0.0
 11
0.5
 21
3.6075
 31
0.0
  0
LINE
  5
1FA
100
AcDbEntity
  8
0
  6
DOT
 62
     7
100
AcDbLine
 10
-2.5
 20
1.3925
 30
0.0
 11
0.5
 21
1.3925
 31
0.0
  0
LINE
  5
1FB
100
AcDbEntity
  8
0
  6
CONTINUOUS
 62
     7
100
AcDbLine
 10
54.125
 20
27.7
 30
0.0
 11
50.5
 21
27.7
 31
0.0
  0
LINE
  5
1FC
100
AcDbEntity
  8
0
  6
CONTINUOUS
 62
     7
100
AcDbLine
 10
54.125
 20
32.3
 30
0.0
 11
50.5
 21
32.3
 31
0.0
  0
LWPOLYLINE
  5
1FD
100
AcDbEntity
  8
0
  6
CONTINUOUS
 62
     7
100
AcDbPolyline
 90
        4
 70
     0
 10
54.125
 20
25.4
 42
0.327345
 10
54.125
 20
27.7
 42
0.163043
 10
54.125
 20
32.3
 42
0.327345
 10
54.125
 20
34.6
  0
LWPOLYLINE
  5
1FE
100
AcDbEntity
  8
0
  6
CONTINUOUS
 62
     7
100
AcDbPolyline
 90
        6
 70
     1
 10
54.125
 20
25.4
 10
54.5
 20
25.95
 10
54.5
 20
34.05
 10
54.125
 20
34.6
 10
50.5
 20
34.6
 10
50.5
 20
25.4
  0
LINE
  5
1FF
100
AcDbEntity
  8
0
  6
DOT
 62
     7
100
AcDbLine
 10
50.5
 20
32.5
 30
0.0
 11
54.5
 21
32.5
 31
0.0
  0
LINE
  5
200
100
AcDbEntity
  8
0
  6
DOT
 62
     7
100
AcDbLine
 10
50.5
 20
27.5
 30
0.0
 11
54.5
 21
27.5
 31
0.0
  0
LINE
  5
201
100
AcDbEntity
  8
0
  6
CONTINUOUS
 62
     7
100
AcDbLine
 10
32.0
 20
17.542333
 30
0.0
 11
32.0
 21
20.0
 31
0.0
  0
LINE
  5
202
100
AcDbEntity
  8
0
  6
CONTINUOUS
 62
     7
100
AcDbLine
 10
32.0
 20
20.0
 30
0.0
 11
33.0
 21
20.0
 31
0.0
  0
LINE
  5
203
100
AcDbEntity
  8
0
  6
CONTINUOUS
 62
     7
100
AcDbLine
 10
33.0
 20
20.0
 30
0.0
 11
33.0
 21
17.542333
 31
0.0
  0
LINE
  5
204
100
AcDbEntity
  8
0
  6
CONTINUOUS
 62
     7
100
AcDbLine
 10
32.0
 20
12.457667
 30
0.0
 11
32.0
 21
10.0
 31
0.0
  0
LINE
  5
205
100
AcDbEntity
  8
0
  6
CONTINUOUS
 62
     7
100
AcDbLine
 10
32.0
 20
10.0
 30
0.0
 11
33.0
 21
10.0
 31
0.0
  0
LINE
  5
206
100
AcDbEntity
  8
0
  6
CONTINUOUS
 62
     7
100
AcDbLine
 10
33.0
 20
10.0
 30
0.0
 11
33.0
 21
12.457667
 31
0.0
  0
LWPOLYLINE
  5
207
100
AcDbEntity
  8
0
  6
CONTINUOUS
 62
     7
100
AcDbPolyline
 90
        4
 70
     1
 10
31.75
 20
14.18
 10
32.78
 20
15.16
 10
33.0
 20
20.0
 10
32.0
 20
20.0
  0
LWPOLYLINE
  5
208
100
AcDbEntity
  8
0
  6
CONTINUOUS
 62
     7
100
AcDbPolyline
 90
        4
 70
     1
 10
33.28
 20
14.85
 10
32.22
 20
13.7
 10
32.0
 20
10.0
 10
33.0
 20
10.0
  0
LINE
  5
209
100
AcDbEntity
  8
0
  6
DOT
 62
     7
100
AcDbLine
 10
32.0
 20
17.457667
 30
0.0
 11
32.0
 21
12.542333
 31
0.0
  0
LINE
  5
20A
100
AcDbEntity
  8
0
  6
DOT
 62
     7
100
AcDbLine
 10
33.0
 20
17.457667
 30
0.0
 11
33.0
 21
12.542333
 31
0.0
  0
LINE
  5
20B
100
AcDbEntity
  8
0
  6
DOT
 62
     7
100
AcDbLine
 10
32.0
 20
12.375
 30
0.0
 11
33.0
 21
12.375
 31
0.0
  0
LINE
  5
20C
100
AcDbEntity
  8
0
  6
DOT
 62
     7
100
AcDbLine
 10
32.0
 20
17.625
 30
0.0
 11
33.0
 21
17.625
 31
0.0
  0
LWPOLYLINE
  5
20D
100
AcDbEntity
  8
0
  6
CONTINUOUS
 62
     7
100
AcDbPolyline
 90
       20
 70
     1
 10
46.875
 20
18.0
 10
48.5
 20
18.0
 42
0.149071
 10
49.25
 20
18.375
 42
0.185695
 10
49.5
 20
19.0
 10
49.5
 20
20.625
 10
50.5
 20
20.625
 10
50.5
 20
19.0
 42
0.185695
 10
50.75
 20
18.375
 42
0.149071
 10
51.5
 20
18.0
 10
53.125
 20
18.0
 10
53.125
 20
17.0
 10
51.5
 20
17.0
 42
0.149071
 10
50.75
 20
16.625
 42
0.185695
 10
50.5
 20
16.0
 10
50.5
 20
14.375
 10
49.5
 20
14.375
 10
49.5
 20
16.0
 42
0.185695
 10
49.25
 20
16.625
 42
0.149071
 10
48.5
 20
17.0
 10
46.875
 20
17.0
  0
LWPOLYLINE
  5
20E
100
AcDbEntity
  8
0
  6
CONTINUOUS
 62
     7
100
AcDbPolyline
 90
        2
 70
     1
 10
45.0
 20
17.5
 42
-1.0
 10
55.0
 20
17.5
 42
-1.0
  0
LWPOLYLINE
  5
20F
100
AcDbEntity
  8
0
  6
CONTINUOUS
 62
     7
100
AcDbPolyline
 90
       12
 70
     1
 10
48.0
 20
15.5
 10
48.875
 20
16.75
 42
0.333333
 10
48.875
 20
18.25
 10
48.0
 20
19.5
 10
49.25
 20
18.625
 42
0.333333
 10
50.75
 20
18.625
 10
52.0
 20
19.5
 10
51.125
 20
18.25
 42
0.333333
 10
51.125
 20
16.75
 10
52.0
 20
15.5
 10
50.75
 20
16.375
 42
0.333333
 10
49.25
 20
16.375
  0
LWPOLYLINE
  5
210
100
AcDbEntity
  8
0
  6
DOT
 62
     7
100
AcDbPolyline
 90
        2
 70
     1
 10
47.5
 20
17.5
 42
-1.0
 10
52.5
 20
17.5
 42
-1.0
  0
LWPOLYLINE
  5
211
100
AcDbEntity
  8
0
  6
DOT
 62
     7
100
AcDbPolyline
 90
        2
 70
     1
 10
48.25
 20
17.5
 42
-1.0
 10
51.75
 20
17.5
 42
-1.0
  0
LWPOLYLINE
  5
212
100
AcDbEntity
  8
0
  6
CONTINUOUS
 62
     7
100
AcDbPolyline
 90
        2
 70
     1
 10
73.25
 20
17.5
 42
-1.0
 10
76.75
 20
17.5
 42
-1.0
  0
ARC
  5
213
100
AcDbEntity
  8
0
  6
CONTINUOUS
 62
     7
100
AcDbCircle
 10
75.0
 20
17.5
 30
0.0
 40
3.75
100
AcDbArc
 50
0.0
 51
180.0
  0
ARC
  5
214
100
AcDbEntity
  8
0
  6
CONTINUOUS
 62
     7
100
AcDbCircle
 10
75.0
 20
17.5
 30
0.0
 40
3.75
100
AcDbArc
 50
180.0
 51
0.0
  0
LWPOLYLINE
  5
215
100
AcDbEntity
  8
0
  6
CONTINUOUS
 62
     7
100
AcDbPolyline
 90
        6
 70
     1
 10
75.0
 20
21.83
 10
71.25
 20
19.665
 10
71.25
 20
15.335
 10
75.0
 20
13.17
 10
78.75
 20
15.335
 10
78.75
 20
19.665
  0
LWPOLYLINE
  5
216
100
AcDbEntity
  8
0
  6
CONTINUOUS
 62
     7
100
AcDbPolyline
 90
        4
 70
     1
 10
76.767767
 20
19.267767
 42
-0.895043
 10
73.585786
 20
15.37868
 42
0.895043
 10
76.767767
 20
19.267767
 42
0.895043
 10
72.87868
 20
16.085786
 42
-0.895043
  0
LWPOLYLINE
  5
217
100
AcDbEntity
  8
0
  6
CONTINUOUS
 62
     7
100
AcDbPolyline
 90
        2
 70
     1
 10
91.5
 20
27.5
 42
-1.0
 10
83.5
 20
27.5
 42
-1.0
  0
LWPOLYLINE
  5
218
100
AcDbEntity
  8
0
  6
CONTINUOUS
 62
     7
100
AcDbPolyline
 90
        6
 70
     1
 10
87.5
 20
29.935625
 10
85.390625
 20
28.717812
 10
85.390625
 20
26.282187
 10
87.5
 20
25.064375
 10
89.609375
 20
26.282187
 10
89.609375
 20
28.717812
  0
LWPOLYLINE
  5
219
100
AcDbEntity
  8
0
  6
CONTINUOUS
 62
     7
100
AcDbPolyline
 90
        2
 70
     1
 10
90.88
 20
27.5
 42
1.000393
 10
84.12
 20
27.5
 42
1.000393
  0
LWPOLYLINE
  5
21A
100
AcDbEntity
  8
0
  6
DOT
 62
     7
100
AcDbPolyline
 90
        2
 70
     1
 10
85.0
 20
27.5
 42
-1.0
 10
90.0
 20
27.5
 42
-1.0
  0
LWPOLYLINE
  5
21B
100
AcDbEntity
  8
0
  6
DOT
 62
     7
100
AcDbPolyline
 90
        2
 70
     1
 10
85.75
 20
27.5
 42
-1.0
 10
89.25
 20
27.5
 42
-1.0
  0
ENDBLK
  5
21C
100
AcDbEntity
  8
0
100
AcDbBlockEnd
  0
BLOCK
  5
21E
100
AcDbEntity
  8
0
100
AcDbBlockBegin
  2
MASTER_48
 70
     0
 10
0.0
 20
0.0
 30
0.0
  3
MASTER_48
  1

  0
LWPOLYLINE
  5
21F
100
AcDbEntity
  8
0
  6
CONTINUOUS
 62
     7
100
AcDbPolyline
 90
        6
 70
     1
 10
51.781089
 20
14.0
 10
45.718911
 20
14.0
 10
42.687822
 20
8.75
 10
45.718911
 20
3.5
 10
51.781089
 20
3.5
 10
54.812178
 20
8.75
  0
LWPOLYLINE
  5
220
100
AcDbEntity
  8
0
  6
CONTINUOUS
 62
     7
100
AcDbPolyline
 90
        2
 70
     1
 10
25.75
 20
8.75
 42
-1.0
 10
34.75
 20
8.75
 42
-1.0
  0
LWPOLYLINE
  5
221
100
AcDbEntity
  8
0
  6
CONTINUOUS
 62
     7
100
AcDbPolyline
 90
        6
 70
     1
 10
32.703739
 20
13.0
 10
27.796261
 20
13.0
 10
25.342523
 20
8.75
 10
27.796261
 20
4.5
 10
32.703739
 20
4.5
 10
35.157477
 20
8.75
  0
LWPOLYLINE
  5
222
100
AcDbEntity
  8
0
  6
CONTINUOUS
 62
     7
100
AcDbPolyline
 90
        2
 70
     1
 10
27.5
 20
8.75
 42
-1.0
 10
33.0
 20
8.75
 42
-1.0
  0
LWPOLYLINE
  5
223
100
AcDbEntity
  8
0
  6
CONTINUOUS
 62
     7
100
AcDbPolyline
 90
        2
 70
     1
 10
43.5
 20
8.75
 42
-1.0
 10
54.0
 20
8.75
 42
-1.0
  0
LWPOLYLINE
  5
224
100
AcDbEntity
  8
0
  6
CONTINUOUS
 62
     7
100
AcDbPolyline
 90
        2
 70
     1
 10
45.5
 20
8.75
 42
-1.0
 10
52.0
 20
8.75
 42
-1.0
  0
LWPOLYLINE
  5
225
100
AcDbEntity
  8
0
  6
CONTINUOUS
 62
     7
100
AcDbPolyline
 90
        6
 70
     1
 10
74.147114
 20
15.5
 10
66.352886
 20
15.5
 10
62.455771
 20
8.75
 10
66.352886
 20
2.0
 10
74.147114
 20
2.0
 10
78.044229
 20
8.75
  0
LWPOLYLINE
  5
226
100
AcDbEntity
  8
0
  6
CONTINUOUS
 62
     7
100
AcDbPolyline
 90
        2
 70
     1
 10
63.25
 20
8.75
 42
-1.0
 10
77.25
 20
8.75
 42
-1.0
  0
LWPOLYLINE
  5
227
100
AcDbEntity
  8
0
  6
CONTINUOUS
 62
     7
100
AcDbPolyline
 90
        2
 70
     1
 10
66.0
 20
8.75
 42
-1.0
 10
74.5
 20
8.75
 42
-1.0
  0
LWPOLYLINE
  5
228
100
AcDbEntity
  8
0
  6
CONTINUOUS
 62
     7
100
AcDbPolyline
 90
        2
 70
     1
 10
11.0
 20
8.75
 42
-1.0
 10
19.5
 20
8.75
 42
-1.0
  0
LWPOLYLINE
  5
229
100
AcDbEntity
  8
0
  6
CONTINUOUS
 62
     7
100
AcDbPolyline
 90
        6
 70
     1
 10
17.415063
 20
12.5
 10
13.084936
 20
12.5
 10
10.919873
 20
8.75
 10
13.084936
 20
5.0
 10
17.415063
 20
5.0
 10
19.580127
 20
8.75
  0
LWPOLYLINE
  5
22A
100
AcDbEntity
  8
0
  6
CONTINUOUS
 62
     7
100
AcDbPolyline
 90
        2
 70
     1
 10
13.0
 20
8.75
 42
-1.0
 10
17.5
 20
8.75
 42
-1.0
  0
LWPOLYLINE
  5
22B
100
AcDbEntity
  8
0
  6
CONTINUOUS
 62
     7
100
AcDbPolyline
 90
        2
 70
     1
 10
0.0
 20
8.75
 42
-1.0
 10
5.5
 20
8.75
 42
-1.0
  0
LWPOLYLINE
  5
22C
100
AcDbEntity
  8
0
  6
CONTINUOUS
 62
     7
100
AcDbPolyline
 90
        6
 70
     1
 10
4.337713
 20
11.5
 10
1.162287
 20
11.5
 10
-0.425426
 20
8.75
 10
1.162287
 20
6.0
 10
4.337713
 20
6.0
 10
5.925426
 20
8.75
  0
LWPOLYLINE
  5
22D
100
AcDbEntity
  8
0
  6
CONTINUOUS
 62
     7
100
AcDbPolyline
 90
        2
 70
     1
 10
1.0
 20
8.75
 42
-1.0
 10
4.5
 20
8.75
 42
-1.0
  0
LWPOLYLINE
  5
22E
100
AcDbEntity
  8
0
  6
CONTINUOUS
 62
     7
100
AcDbPolyline
 90
        6
 70
     1
 10
95.801815
 20
17.5
 10
85.698185
 20
17.5
 10
80.64637
 20
8.75
 10
85.698185
 20
0.0
 10
95.801815
 20
0.0
 10
100.85363
 20
8.75
  0
LWPOLYLINE
  5
22F
100
AcDbEntity
  8
0
  6
CONTINUOUS
 62
     7
100
AcDbPolyline
 90
        2
 70
     1
 10
82.5
 20
8.75
 42
-1.0
 10
99.0
 20
8.75
 42
-1.0
  0
LWPOLYLINE
  5
230
100
AcDbEntity
  8
0
  6
CONTINUOUS
 62
     7
100
AcDbPolyline
 90
        2
 70
     1
 10
85.5
 20
8.75
 42
-1.0
 10
96.0
 20
8.75
 42
-1.0
  0
ENDBLK
  5
231
100
AcDbEntity
  8
0
100
AcDbBlockEnd
  0
BLOCK
  5
233
100
AcDbEntity
  8
0
100
AcDbBlockBegin
  2
SUBTITLE
 70
     0
 10
0.0
 20
0.0
 30
0.0
  3
SUBTITLE
  1

  0
MTEXT
  5
234
100
AcDbEntity
  8
0
100
AcDbMText
 10
1.411111
 20
4.0
 30
0.0
 40
7.19123
 41
245.0
 71
     4
 72
     5
  1
\C7;\fArial|b1|i0|;\H7.1912296146154;SUBTITLE
  0
ENDBLK
  5
235
100
AcDbEntity
  8
0
100
AcDbBlockEnd
  0
BLOCK
  5
237
100
AcDbEntity
  8
0
100
AcDbBlockBegin
  2
RAHMEN
 70
     0
 10
0.0
 20
0.0
 30
0.0
  3
RAHMEN
  1

  0
LWPOLYLINE
  5
238
100
AcDbEntity
  8
0
  6
CONTINUOUS
 62
     6
100
AcDbPolyline
 90
        4
 70
     1
 10
12.5
 20
12.5
 10
730.0
 20
12.5
 10
730.0
 20
537.221157
 10
12.5
 20
537.221157
  0
LINE
  5
239
100
AcDbEntity
  8
0
  6
CONTINUOUS
 62
     7
100
AcDbLine
 10
111.5625
 20
524.721157
 30
0.0
 11
111.5625
 21
537.221157
 31
0.0
  0
LINE
  5
23A
100
AcDbEntity
  8
0
  6
CONTINUOUS
 62
     7
100
AcDbLine
 10
198.125
 20
524.721157
 30
0.0
 11
198.125
 21
537.221157
 31
0.0
  0
LINE
  5
23B
100
AcDbEntity
  8
0
  6
CONTINUOUS
 62
     7
100
AcDbLine
 10
284.6875
 20
524.721157
 30
0.0
 11
284.6875
 21
537.221157
 31
0.0
  0
LINE
  5
23C
100
AcDbEntity
  8
0
  6
CONTINUOUS
 62
     7
100
AcDbLine
 10
371.25
 20
524.721157
 30
0.0
 11
371.25
 21
537.221157
 31
0.0
  0
LINE
  5
23D
100
AcDbEntity
  8
0
  6
CONTINUOUS
 62
     7
100
AcDbLine
 10
457.8125
 20
524.721157
 30
0.0
 11
457.8125
 21
537.221157
 31
0.0
  0
LINE
  5
23E
100
AcDbEntity
  8
0
  6
CONTINUOUS
 62
     7
100
AcDbLine
 10
544.375
 20
524.721157
 30
0.0
 11
544.375
 21
537.221157
 31
0.0
  0
LINE
  5
23F
100
AcDbEntity
  8
0
  6
CONTINUOUS
 62
     7
100
AcDbLine
 10
630.9375
 20
524.721157
 30
0.0
 11
630.9375
 21
537.221157
 31
0.0
  0
LINE
  5
240
100
AcDbEntity
  8
0
  6
CONTINUOUS
 62
     7
100
AcDbLine
 10
111.5625
 20
25.0
 30
0.0
 11
111.5625
 21
12.5
 31
0.0
  0
LINE
  5
241
100
AcDbEntity
  8
0
  6
CONTINUOUS
 62
     7
100
AcDbLine
 10
198.125
 20
25.0
 30
0.0
 11
198.125
 21
12.5
 31
0.0
  0
LINE
  5
242
100
AcDbEntity
  8
0
  6
CONTINUOUS
 62
     7
100
AcDbLine
 10
284.6875
 20
25.0
 30
0.0
 11
284.6875
 21
12.5
 31
0.0
  0
LINE
  5
243
100
AcDbEntity
  8
0
  6
CONTINUOUS
 62
     7
100
AcDbLine
 10
371.25
 20
25.0
 30
0.0
 11
371.25
 21
12.5
 31
0.0
  0
LINE
  5
244
100
AcDbEntity
  8
0
  6
CONTINUOUS
 62
     7
100
AcDbLine
 10
457.8125
 20
25.0
 30
0.0
 11
457.8125
 21
12.5
 31
0.0
  0
LINE
  5
245
100
AcDbEntity
  8
0
  6
CONTINUOUS
 62
     7
100
AcDbLine
 10
544.375
 20
25.0
 30
0.0
 11
544.375
 21
12.5
 31
0.0
  0
LINE
  5
246
100
AcDbEntity
  8
0
  6
CONTINUOUS
 62
     7
100
AcDbLine
 10
630.9375
 20
25.0
 30
0.0
 11
630.9375
 21
12.5
 31
0.0
  0
LINE
  5
247
100
AcDbEntity
  8
0
  6
CONTINUOUS
 62
     7
100
AcDbLine
 10
25.0
 20
462.256013
 30
0.0
 11
12.5
 21
462.256013
 31
0.0
  0
LINE
  5
248
100
AcDbEntity
  8
0
  6
CONTINUOUS
 62
     7
100
AcDbLine
 10
25.0
 20
399.790868
 30
0.0
 11
12.5
 21
399.790868
 31
0.0
  0
LINE
  5
249
100
AcDbEntity
  8
0
  6
CONTINUOUS
 62
     7
100
AcDbLine
 10
25.0
 20
337.325723
 30
0.0
 11
12.5
 21
337.325723
 31
0.0
  0
LINE
  5
24A
100
AcDbEntity
  8
0
  6
CONTINUOUS
 62
     7
100
AcDbLine
 10
25.0
 20
274.860579
 30
0.0
 11
12.5
 21
274.860579
 31
0.0
  0
LINE
  5
24B
100
AcDbEntity
  8
0
  6
CONTINUOUS
 62
     7
100
AcDbLine
 10
25.0
 20
212.395434
 30
0.0
 11
12.5
 21
212.395434
 31
0.0
  0
LINE
  5
24C
100
AcDbEntity
  8
0
  6
CONTINUOUS
 62
     7
100
AcDbLine
 10
25.0
 20
149.930289
 30
0.0
 11
12.5
 21
149.930289
 31
0.0
  0
LINE
  5
24D
100
AcDbEntity
  8
0
  6
CONTINUOUS
 62
     7
100
AcDbLine
 10
25.0
 20
87.465145
 30
0.0
 11
12.5
 21
87.465145
 31
0.0
  0
LINE
  5
24E
100
AcDbEntity
  8
0
  6
CONTINUOUS
 62
     7
100
AcDbLine
 10
717.5
 20
462.256013
 30
0.0
 11
730.0
 21
462.256013
 31
0.0
  0
LINE
  5
24F
100
AcDbEntity
  8
0
  6
CONTINUOUS
 62
     7
100
AcDbLine
 10
717.5
 20
399.790868
 30
0.0
 11
730.0
 21
399.790868
 31
0.0
  0
LINE
  5
250
100
AcDbEntity
  8
0
  6
CONTINUOUS
 62
     7
100
AcDbLine
 10
717.5
 20
337.325723
 30
0.0
 11
730.0
 21
337.325723
 31
0.0
  0
LINE
  5
251
100
AcDbEntity
  8
0
  6
CONTINUOUS
 62
     7
100
AcDbLine
 10
717.5
 20
274.860579
 30
0.0
 11
730.0
 21
274.860579
 31
0.0
  0
LINE
  5
252
100
AcDbEntity
  8
0
  6
CONTINUOUS
 62
     7
100
AcDbLine
 10
717.5
 20
212.395434
 30
0.0
 11
730.0
 21
212.395434
 31
0.0
  0
LINE
  5
253
100
AcDbEntity
  8
0
  6
CONTINUOUS
 62
     7
100
AcDbLine
 10
717.5
 20
149.930289
 30
0.0
 11
730.0
 21
149.930289
 31
0.0
  0
LINE
  5
254
100
AcDbEntity
  8
0
  6
CONTINUOUS
 62
     7
100
AcDbLine
 10
717.5
 20
87.465145
 30
0.0
 11
730.0
 21
87.465145
 31
0.0
  0
LWPOLYLINE
  5
255
100
AcDbEntity
  8
0
  6
CONTINUOUS
 62
     7
100
AcDbPolyline
 90
        4
 70
     1
 10
25.0
 20
524.721157
 10
25.0
 20
25.0
 10
717.5
 20
25.0
 10
717.5
 20
524.721157
  0
MTEXT
  5
256
100
AcDbEntity
  8
0
100
AcDbMText
 10
723.75
 20
534.89011
 30
0.0
 40
6.164012
 41
12.5
 71
     2
 72
     5
  1
\C7;\fArial|b0|i0|;\H6.1640118710697;H\PG\PF\PE\PD\PC\PB\PA\P
  0
MTEXT
  5
257
100
AcDbEntity
  8
0
100
AcDbMText
 10
12.5
 20
18.75
 30
0.0
 40
6.164012
 41
717.5
 71
     4
 72
     5
  1
\C7;\fArial|b0|i0|;\H6.1640118710697;87654321
  0
MTEXT
  5
258
100
AcDbEntity
  8
0
100
AcDbMText
 10
18.75
 20
534.89011
 30
0.0
 40
6.164012
 41
12.5
 71
     2
 72
     5
  1
\C7;\fArial|b0|i0|;\H6.1640118710697;H\PG\PF\PE\PD\PC\PB\PA\P
  0
MTEXT
  5
259
100
AcDbEntity
  8
0
100
AcDbMText
 10
12.5
 20
530.971157
 30
0.0
 40
6.164012
 41
717.5
 71
     4
 72
     5
  1
\C7;\fArial|b0|i0|;\H6.1640118710697;87654321
  0
ENDBLK
  5
25A
100
AcDbEntity
  8
0
100
AcDbBlockEnd
  0
BLOCK
  5
25C
100
AcDbEntity
  8
0
100
AcDbBlockBegin
  2
MASTER_51
 70
     0
 10
0.0
 20
0.0
 30
0.0
  3
MASTER_51
  1

  0
LINE
  5
25D
100
AcDbEntity
  8
0
  6
DASHDOT
 62
     7
100
AcDbLine
 10
0.0
 20
12.7
 30
0.0
 11
86.0
 21
12.7
 31
0.0
  0
ENDBLK
  5
25E
100
AcDbEntity
  8
0
100
AcDbBlockEnd
  0
BLOCK
  5
260
100
AcDbEntity
  8
0
100
AcDbBlockBegin
  2
TITLE
 70
     0
 10
0.0
 20
0.0
 30
0.0
  3
TITLE
  1

  0
MTEXT
  5
261
100
AcDbEntity
  8
0
100
AcDbMText
 10
1.411111
 20
5.0
 30
0.0
 40
9.245947
 41
147.5
 71
     4
 72
     5
  1
\C7;\fArial|b1|i0|;\H9.245947265625;TITLE
  0
ENDBLK
  5
262
100
AcDbEntity
  8
0
100
AcDbBlockEnd
  0
BLOCK
  5
264
100
AcDbEntity
  8
0
100
AcDbBlockBegin
  2
DESCRIPTION
 70
     0
 10
0.0
 20
0.0
 30
0.0
  3
DESCRIPTION
  1

  0
MTEXT
  5
265
100
AcDbEntity
  8
0
100
AcDbMText
 10
1.411111
 20
2.916667
 30
0.0
 40
5.136653
 41
82.0
 71
     4
 72
     5
  1
\C7;\fArial|b1|i0|;\H5.1366530455649;DESCRIPTION
  0
ENDBLK
  5
266
100
AcDbEntity
  8
0
100
AcDbBlockEnd
  0
BLOCK
  5
268
100
AcDbEntity
  8
0
100
AcDbBlockBegin
  2
MASTER_54
 70
     0
 10
0.0
 20
0.0
 30
0.0
  3
MASTER_54
  1

  0
LWPOLYLINE
  5
269
100
AcDbEntity
  8
0
  6
CONTINUOUS
 62
     7
100
AcDbPolyline
 90
        2
 70
     1
 10
26.5
 20
1.583333
 10
26.5
 20
11.641667
  0
LWPOLYLINE
  5
26A
100
AcDbEntity
  8
0
  6
CONTINUOUS
 62
     7
100
AcDbPolyline
 90
        2
 70
     1
 10
0.0
 20
1.583333
 10
0.0
 20
11.641667
  0
LINE
  5
26B
100
AcDbEntity
  8
0
  6
CONTINUOUS
 62
     7
100
AcDbLine
 10
13.25
 20
3.7
 30
0.0
 11
26.5
 21
3.7
 31
0.0
  0
LINE
  5
26C
100
AcDbEntity
  8
0
  6
CONTINUOUS
 62
     7
100
AcDbLine
 10
13.25
 20
3.7
 30
0.0
 11
0.0
 21
3.7
 31
0.0
  0
MTEXT
  5
26D
100
AcDbEntity
  8
0
100
AcDbMText
 10
11.5
 20
5.499782
 30
0.0
 40
3.081935
 41
9.676842
 71
     5
 72
     5
  1
\C7;\fArial|b0|i0|;\H3.0819353945553;26,5\P0mm
  0
ENDBLK
  5
26E
100
AcDbEntity
  8
0
100
AcDbBlockEnd
  0
BLOCK
  5
270
100
AcDbEntity
  8
0
100
AcDbBlockBegin
  2
MASTER_55
 70
     2
 10
0.0
 20
0.0
 30
0.0
  3
MASTER_55
  1

  0
ATTDEF
  5
271
100
AcDbEntity
  8
0
100
AcDbText
 10
0.0
 20
12.7
 30
0.0
 40
0.2
  1
0.00
100
AcDbAttributeDefinition
  3
Genauigkeit
  2
LPREC
 70
     0
  0
ATTDEF
  5
272
100
AcDbEntity
  8
0
100
AcDbText
 10
0.0
 20
12.7
 30
0.0
 40
0.2
  1
Zeichenblatteinheiten verwenden
100
AcDbAttributeDefinition
  3
Einheiten
  2
LUNITS
 70
     0
  0
ATTDEF
  5
273
100
AcDbEntity
  8
0
100
AcDbText
 10
0.0
 20
12.7
 30
0.0
 40
0.2
  1
Ma\U+00DFeinheiten anzeigen
100
AcDbAttributeDefinition
  3
Ma\U+00DFeinheitenanzeige
  2
SHOWUNITS
 70
     0
  0
ATTDEF
  5
274
100
AcDbEntity
  8
0
100
AcDbText
 10
0.0
 20
12.7
 30
0.0
 40
0.2
  1
Beide
100
AcDbAttributeDefinition
  3
Erweiterungslinien
  2
EXTENSIONS
 70
     0
  0
ATTDEF
  5
275
100
AcDbEntity
  8
0
100
AcDbText
 10
0.0
 20
12.7
 30
0.0
 40
0.2
  1
0
100
AcDbAttributeDefinition
  3
Winkel
  2
ANGLE
 70
     0
  0
LWPOLYLINE
  5
276
100
AcDbEntity
  8
0
  6
CONTINUOUS
 62
     7
100
AcDbPolyline
 90
        2
 70
     1
 10
0.0
 20
22.522222
 10
0.0
 20
14.111111
  0
LWPOLYLINE
  5
277
100
AcDbEntity
  8
0
  6
CONTINUOUS
 62
     7
100
AcDbPolyline
 90
        2
 70
     1
 10
25.0
 20
22.522222
 10
25.0
 20
14.111111
  0
LINE
  5
278
100
AcDbEntity
  8
0
  6
CONTINUOUS
 62
     7
100
AcDbLine
 10
12.5
 20
19.7
 30
0.0
 11
0.0
 21
19.7
 31
0.0
  0
LINE
  5
279
100
AcDbEntity
  8
0
  6
CONTINUOUS
 62
     7
100
AcDbLine
 10
12.5
 20
19.7
 30
0.0
 11
25.0
 21
19.7
 31
0.0
  0
MTEXT
  5
27A
100
AcDbEntity
  8
0
100
AcDbMText
 10
15.0
 20
23.099517
 30
0.0
 40
4.109294
 41
12.814054
 71
     5
 72
     5
  1
\C7;\fArial|b0|i0|;\H4.1092942200601;25,0\P0mm
  0
ENDBLK
  5
27B
100
AcDbEntity
  8
0
100
AcDbBlockEnd
  0
BLOCK
  5
27D
100
AcDbEntity
  8
0
100
AcDbBlockBegin
  2
MASTER_56
 70
     2
 10
0.0
 20
0.0
 30
0.0
  3
MASTER_56
  1

  0
LWPOLYLINE
  5
27E
100
AcDbEntity
  8
0
  6
CONTINUOUS
 62
     7
100
AcDbPolyline
 90
        4
 70
     1
 10
0.0
 20
0.0
 10
5.5
 20
0.0
 10
5.5
 20
4.0
 10
0.0
 20
4.0
  0
LWPOLYLINE
  5
280
100
AcDbEntity
  8
0
  6
DASHED
 62
     7
100
AcDbPolyline
 90
        4
 70
     1
 10
0.0
 20
0.375
 10
5.5
 20
0.375
 10
5.5
 20
3.625
 10
0.0
 20
3.625
  0
ENDBLK
  5
281
100
AcDbEntity
  8
0
100
AcDbBlockEnd
  0
BLOCK
  5
283
100
AcDbEntity
  8
0
100
AcDbBlockBegin
  2
MASTER_57
 70
     0
 10
0.0
 20
0.0
 30
0.0
  3
MASTER_57
  1

  0
LWPOLYLINE
  5
284
100
AcDbEntity
  8
0
  6
CONTINUOUS
 62
     7
100
AcDbPolyline
 90
        3
 70
     1
 10
0.0
 20
2.5
 10
2.0
 20
2.5
 10
2.0
 20
0.05051
 42
2.805884
  0
CIRCLE
  5
285
100
AcDbEntity
  8
0
  6
CONTINUOUS
 62
     7
100
AcDbCircle
 10
2.5
 20
2.5
 30
0.0
 40
2.25
  0
CIRCLE
  5
286
100
AcDbEntity
  8
0
  6
CONTINUOUS
 62
     7
100
AcDbCircle
 10
2.5
 20
2.5
 30
0.0
 40
2.0
  0
ENDBLK
  5
287
100
AcDbEntity
  8
0
100
AcDbBlockEnd
  0
BLOCK
  5
289
100
AcDbEntity
  8
0
100
AcDbBlockBegin
  2
SCREWS
 70
     0
 10
0.0
 20
0.0
 30
0.0
  3
SCREWS
  1

  0
LWPOLYLINE
  5
28A
100
AcDbEntity
  8
0
  6
CONTINUOUS
 62
     7
100
AcDbPolyline
 90
        4
 70
     1
 10
62.5
 20
-2.5
 10
63.5
 20
-2.5
 10
63.5
 20
7.5
 10
62.5
 20
7.5
  0
LINE
  5
28B
100
AcDbEntity
  8
0
  6
DOT
 62
     7
100
AcDbLine
 10
62.5
 20
-0.125
 30
0.0
 11
63.5
 21
-0.125
 31
0.0
  0
LINE
  5
28C
100
AcDbEntity
  8
0
  6
DOT
 62
     7
100
AcDbLine
 10
62.5
 20
5.125
 30
0.0
 11
63.5
 21
5.125
 31
0.0
  0
LWPOLYLINE
  5
28D
100
AcDbEntity
  8
0
  6
CONTINUOUS
 62
     7
100
AcDbPolyline
 90
        6
 70
     1
 10
53.0
 20
-2.5
 10
53.5
 20
-2.5
 10
53.5
 20
7.5
 10
53.0
 20
7.5
 10
52.5
 20
6.386956
 10
52.5
 20
-1.386956
  0
LINE
  5
28E
100
AcDbEntity
  8
0
  6
CONTINUOUS
 62
     7
100
AcDbLine
 10
53.0
 20
-2.5
 30
0.0
 11
53.0
 21
7.5
 31
0.0
  0
LINE
  5
28F
100
AcDbEntity
  8
0
  6
DOT
 62
     7
100
AcDbLine
 10
52.5
 20
-0.125
 30
0.0
 11
53.5
 21
-0.125
 31
0.0
  0
LINE
  5
290
100
AcDbEntity
  8
0
  6
DOT
 62
     7
100
AcDbLine
 10
52.5
 20
5.125
 30
0.0
 11
53.5
 21
5.125
 31
0.0
  0
LWPOLYLINE
  5
291
100
AcDbEntity
  8
0
  6
CONTINUOUS
 62
     7
100
AcDbPolyline
 90
        2
 70
     1
 10
72.5
 20
2.5
 42
1.0
 10
82.5
 20
2.5
 42
1.0
  0
LWPOLYLINE
  5
292
100
AcDbEntity
  8
0
  6
CONTINUOUS
 62
     7
100
AcDbPolyline
 90
        2
 70
     1
 10
74.875
 20
2.5
 42
1.0
 10
80.125
 20
2.5
 42
1.0
  0
LWPOLYLINE
  5
293
100
AcDbEntity
  8
0
  6
CONTINUOUS
 62
     7
100
AcDbPolyline
 90
        2
 70
     1
 10
32.5
 20
2.5
 42
1.0
 10
42.5
 20
2.5
 42
1.0
  0
LWPOLYLINE
  5
294
100
AcDbEntity
  8
0
  6
CONTINUOUS
 62
     7
100
AcDbPolyline
 90
        2
 70
     1
 10
34.875
 20
2.5
 42
1.0
 10
40.125
 20
2.5
 42
1.0
  0
LWPOLYLINE
  5
295
100
AcDbEntity
  8
0
  6
CONTINUOUS
 62
     7
100
AcDbPolyline
 90
        2
 70
     1
 10
33.4
 20
2.5
 42
1.0
 10
41.6
 20
2.5
 42
1.0
  0
LINE
  5
296
100
AcDbEntity
  8
0
  6
CONTINUOUS
 62
     7
100
AcDbLine
 10
65.875
 20
28.125
 30
0.0
 11
69.125
 21
28.125
 31
0.0
  0
LINE
  5
297
100
AcDbEntity
  8
0
  6
CONTINUOUS
 62
     7
100
AcDbLine
 10
65.875
 20
31.875
 30
0.0
 11
69.125
 21
31.875
 31
0.0
  0
LWPOLYLINE
  5
298
100
AcDbEntity
  8
0
  6
CONTINUOUS
 62
     7
100
AcDbPolyline
 90
        8
 70
     0
 10
65.875
 20
25.4
 42
-0.277858
 10
65.875
 20
28.125
 42
-0.2
 10
65.875
 20
31.875
 42
-0.277858
 10
65.875
 20
34.6
 10
69.125
 20
34.6
 42
-0.277858
 10
69.125
 20
31.875
 42
-0.2
 10
69.125
 20
28.125
 42
-0.277858
 10
69.125
 20
25.4
  0
LWPOLYLINE
  5
299
100
AcDbEntity
  8
0
  6
CONTINUOUS
 62
     7
100
AcDbPolyline
 90
        8
 70
     1
 10
65.875
 20
25.4
 10
65.5
 20
25.95
 10
65.5
 20
34.05
 10
65.875
 20
34.6
 10
69.125
 20
34.6
 10
69.5
 20
34.05
 42
-0.925926
 10
69.5
 20
25.95
 10
69.125
 20
25.4
  0
LINE
  5
29A
100
AcDbEntity
  8
0
  6
DOT
 62
     7
100
AcDbLine
 10
69.5
 20
32.5
 30
0.0
 11
65.5
 21
32.5
 31
0.0
  0
LINE
  5
29B
100
AcDbEntity
  8
0
  6
DOT
 62
     7
100
AcDbLine
 10
69.5
 20
27.5
 30
0.0
 11
65.5
 21
27.5
 31
0.0
  0
ARC
  5
29C
100
AcDbEntity
  8
0
  6
DOT
 62
     7
100
AcDbCircle
 10
69.5
 20
30.0
 30
0.0
 40
2.5
100
AcDbArc
 50
270.0
 51
90.0
  0
ARC
  5
29D
100
AcDbEntity
  8
0
  6
CONTINUOUS
 62
     7
100
AcDbCircle
 10
35.0
 20
30.0
 30
0.0
 40
4.0
100
AcDbArc
 50
0.0
 51
180.0
  0
ARC
  5
29E
100
AcDbEntity
  8
0
  6
CONTINUOUS
 62
     7
100
AcDbCircle
 10
35.0
 20
30.0
 30
0.0
 40
4.0
100
AcDbArc
 50
180.0
 51
0.0
  0
LWPOLYLINE
  5
29F
100
AcDbEntity
  8
0
  6
CONTINUOUS
 62
     7
100
AcDbPolyline
 90
        6
 70
     1
 10
31.0
 20
27.690599
 10
31.0
 20
32.309401
 10
35.0
 20
34.618802
 10
39.0
 20
32.309401
 10
39.0
 20
27.690599
 10
35.0
 20
25.381198
  0
LWPOLYLINE
  5
2A0
100
AcDbEntity
  8
0
  6
DOT
 62
     7
100
AcDbPolyline
 90
        2
 70
     1
 10
32.5
 20
30.0
 42
-1.0
 10
37.5
 20
30.0
 42
-1.0
  0
LWPOLYLINE
  5
2A1
100
AcDbEntity
  8
0
  6
DOT
 62
     7
100
AcDbPolyline
 90
        2
 70
     1
 10
33.25
 20
30.0
 42
-1.0
 10
36.75
 20
30.0
 42
-1.0
  0
LINE
  5
2A2
100
AcDbEntity
  8
0
  6
CONTINUOUS
 62
     7
100
AcDbLine
 10
-0.458333
 20
32.3
 30
0.0
 11
2.5
 21
32.3
 31
0.0
  0
LINE
  5
2A3
100
AcDbEntity
  8
0
  6
CONTINUOUS
 62
     7
100
AcDbLine
 10
-0.458333
 20
27.7
 30
0.0
 11
2.5
 21
27.7
 31
0.0
  0
LWPOLYLINE
  5
2A4
100
AcDbEntity
  8
0
  6
CONTINUOUS
 62
     7
100
AcDbPolyline
 90
        4
 70
     0
 10
-0.458333
 20
34.6
 42
0.327345
 10
-0.458333
 20
32.3
 42
0.163043
 10
-0.458333
 20
27.7
 42
0.327345
 10
-0.458333
 20
25.4
  0
LWPOLYLINE
  5
2A5
100
AcDbEntity
  8
0
  6
CONTINUOUS
 62
     7
100
AcDbPolyline
 90
        6
 70
     1
 10
-0.458333
 20
34.6
 10
-0.833333
 20
34.05
 10
-0.833333
 20
25.95
 10
-0.458333
 20
25.4
 10
2.5
 20
25.4
 10
2.5
 20
34.6
  0
LINE
  5
2A6
100
AcDbEntity
  8
0
  6
CONTINUOUS
 62
     7
100
AcDbLine
 10
16.75
 20
32.5
 30
0.0
 11
16.75
 21
27.5
 31
0.0
  0
LINE
  5
2A7
100
AcDbEntity
  8
0
  6
CONTINUOUS
 62
     7
100
AcDbLine
 10
5.0
 20
32.5
 30
0.0
 11
5.0
 21
27.5
 31
0.0
  0
LWPOLYLINE
  5
2A8
100
AcDbEntity
  8
0
  6
CONTINUOUS
 62
     7
100
AcDbPolyline
 90
        6
 70
     1
 10
2.5
 20
32.5
 10
16.75
 20
32.5
 10
17.5
 20
31.75
 10
17.5
 20
28.25
 10
16.75
 20
27.5
 10
2.5
 20
27.5
  0
LWPOLYLINE
  5
2A9
100
AcDbEntity
  8
0
  6
CONTINUOUS
 62
     7
100
AcDbPolyline
 90
        3
 70
     0
 10
3.700962
 20
27.5
 10
5.0
 20
28.25
 10
17.5
 20
28.25
  0
LWPOLYLINE
  5
2AA
100
AcDbEntity
  8
0
  6
CONTINUOUS
 62
     7
100
AcDbPolyline
 90
        3
 70
     0
 10
3.700962
 20
32.5
 10
5.0
 20
31.75
 10
17.5
 20
31.75
  0
LINE
  5
2AB
100
AcDbEntity
  8
0
  6
CONTINUOUS
 62
     7
100
AcDbLine
 10
14.25
 20
20.0
 30
0.0
 11
14.25
 21
15.0
 31
0.0
  0
LINE
  5
2AC
100
AcDbEntity
  8
0
  6
CONTINUOUS
 62
     7
100
AcDbLine
 10
5.0
 20
20.0
 30
0.0
 11
5.0
 21
15.0
 31
0.0
  0
LWPOLYLINE
  5
2AD
100
AcDbEntity
  8
0
  6
CONTINUOUS
 62
     7
100
AcDbPolyline
 90
       12
 70
     1
 10
2.5
 20
20.0
 10
14.25
 20
20.0
 10
15.0
 20
19.25
 10
15.0
 20
15.75
 10
14.25
 20
15.0
 10
2.5
 20
15.0
 10
0.0
 20
12.5
 10
0.0
 20
16.875
 10
1.25
 20
16.875
 10
1.25
 20
18.125
 10
0.0
 20
18.125
 10
0.0
 20
22.5
  0
LINE
  5
2AE
100
AcDbEntity
  8
0
  6
CONTINUOUS
 62
     7
100
AcDbLine
 10
2.5
 20
15.0
 30
0.0
 11
2.5
 21
20.0
 31
0.0
  0
LWPOLYLINE
  5
2AF
100
AcDbEntity
  8
0
  6
CONTINUOUS
 62
     7
100
AcDbPolyline
 90
        3
 70
     0
 10
3.700962
 20
15.0
 10
5.0
 20
15.75
 10
15.0
 20
15.75
  0
LWPOLYLINE
  5
2B0
100
AcDbEntity
  8
0
  6
CONTINUOUS
 62
     7
100
AcDbPolyline
 90
        3
 70
     0
 10
3.700962
 20
20.0
 10
5.0
 20
19.25
 10
15.0
 20
19.25
  0
LWPOLYLINE
  5
2B1
100
AcDbEntity
  8
0
  6
CONTINUOUS
 62
     7
100
AcDbPolyline
 90
        6
 70
     1
 10
-1.875
 20
6.5
 10
-2.5
 20
5.875
 10
-2.5
 20
-0.875
 10
-1.875
 20
-1.5
 10
2.5
 20
-1.5
 10
2.5
 20
6.5
  0
LINE
  5
2B2
100
AcDbEntity
  8
0
  6
CONTINUOUS
 62
     7
100
AcDbLine
 10
-1.875
 20
6.5
 30
0.0
 11
-1.875
 21
-1.5
 31
0.0
  0
LINE
  5
2B3
100
AcDbEntity
  8
0
  6
CONTINUOUS
 62
     7
100
AcDbLine
 10
16.75
 20
5.0
 30
0.0
 11
16.75
 21
0.0
 31
0.0
  0
LINE
  5
2B4
100
AcDbEntity
  8
0
  6
CONTINUOUS
 62
     7
100
AcDbLine
 10
5.0
 20
5.0
 30
0.0
 11
5.0
 21
0.0
 31
0.0
  0
LWPOLYLINE
  5
2B5
100
AcDbEntity
  8
0
  6
CONTINUOUS
 62
     7
100
AcDbPolyline
 90
        6
 70
     1
 10
2.5
 20
5.0
 10
16.75
 20
5.0
 10
17.5
 20
4.25
 10
17.5
 20
0.75
 10
16.75
 20
0.0
 10
2.5
 20
0.0
  0
LWPOLYLINE
  5
2B6
100
AcDbEntity
  8
0
  6
CONTINUOUS
 62
     7
100
AcDbPolyline
 90
        3
 70
     0
 10
3.700962
 20
0.0
 10
5.0
 20
0.75
 10
17.5
 20
0.75
  0
LWPOLYLINE
  5
2B7
100
AcDbEntity
  8
0
  6
CONTINUOUS
 62
     7
100
AcDbPolyline
 90
        3
 70
     0
 10
3.700962
 20
5.0
 10
5.0
 20
4.25
 10
17.5
 20
4.25
  0
LWPOLYLINE
  5
2B8
100
AcDbEntity
  8
0
  6
DOT
 62
     7
100
AcDbPolyline
 90
        5
 70
     0
 10
-2.5
 20
5.0
 10
0.5
 20
5.0
 10
1.25
 20
2.5
 10
0.5
 20
0.0
 10
-2.5
 20
0.0
  0
LINE
  5
2B9
100
AcDbEntity
  8
0
  6
DOT
 62
     7
100
AcDbLine
 10
0.5
 20
5.0
 30
0.0
 11
0.5
 21
0.0
 31
0.0
  0
LINE
  5
2BA
100
AcDbEntity
  8
0
  6
DOT
 62
     7
100
AcDbLine
 10
-2.5
 20
3.6075
 30
0.0
 11
0.5
 21
3.6075
 31
0.0
  0
LINE
  5
2BB
100
AcDbEntity
  8
0
  6
DOT
 62
     7
100
AcDbLine
 10
-2.5
 20
1.3925
 30
0.0
 11
0.5
 21
1.3925
 31
0.0
  0
LINE
  5
2BC
100
AcDbEntity
  8
0
  6
CONTINUOUS
 62
     7
100
AcDbLine
 10
54.125
 20
27.7
 30
0.0
 11
50.5
 21
27.7
 31
0.0
  0
LINE
  5
2BD
100
AcDbEntity
  8
0
  6
CONTINUOUS
 62
     7
100
AcDbLine
 10
54.125
 20
32.3
 30
0.0
 11
50.5
 21
32.3
 31
0.0
  0
LWPOLYLINE
  5
2BE
100
AcDbEntity
  8
0
  6
CONTINUOUS
 62
     7
100
AcDbPolyline
 90
        4
 70
     0
 10
54.125
 20
25.4
 42
0.327345
 10
54.125
 20
27.7
 42
0.163043
 10
54.125
 20
32.3
 42
0.327345
 10
54.125
 20
34.6
  0
LWPOLYLINE
  5
2BF
100
AcDbEntity
  8
0
  6
CONTINUOUS
 62
     7
100
AcDbPolyline
 90
        6
 70
     1
 10
54.125
 20
25.4
 10
54.5
 20
25.95
 10
54.5
 20
34.05
 10
54.125
 20
34.6
 10
50.5
 20
34.6
 10
50.5
 20
25.4
  0
LINE
  5
2C0
100
AcDbEntity
  8
0
  6
DOT
 62
     7
100
AcDbLine
 10
50.5
 20
32.5
 30
0.0
 11
54.5
 21
32.5
 31
0.0
  0
LINE
  5
2C1
100
AcDbEntity
  8
0
  6
DOT
 62
     7
100
AcDbLine
 10
50.5
 20
27.5
 30
0.0
 11
54.5
 21
27.5
 31
0.0
  0
LINE
  5
2C2
100
AcDbEntity
  8
0
  6
CONTINUOUS
 62
     7
100
AcDbLine
 10
32.0
 20
17.542333
 30
0.0
 11
32.0
 21
20.0
 31
0.0
  0
LINE
  5
2C3
100
AcDbEntity
  8
0
  6
CONTINUOUS
 62
     7
100
AcDbLine
 10
32.0
 20
20.0
 30
0.0
 11
33.0
 21
20.0
 31
0.0
  0
LINE
  5
2C4
100
AcDbEntity
  8
0
  6
CONTINUOUS
 62
     7
100
AcDbLine
 10
33.0
 20
20.0
 30
0.0
 11
33.0
 21
17.542333
 31
0.0
  0
LINE
  5
2C5
100
AcDbEntity
  8
0
  6
CONTINUOUS
 62
     7
100
AcDbLine
 10
32.0
 20
12.457667
 30
0.0
 11
32.0
 21
10.0
 31
0.0
  0
LINE
  5
2C6
100
AcDbEntity
  8
0
  6
CONTINUOUS
 62
     7
100
AcDbLine
 10
32.0
 20
10.0
 30
0.0
 11
33.0
 21
10.0
 31
0.0
  0
LINE
  5
2C7
100
AcDbEntity
  8
0
  6
CONTINUOUS
 62
     7
100
AcDbLine
 10
33.0
 20
10.0
 30
0.0
 11
33.0
 21
12.457667
 31
0.0
  0
LWPOLYLINE
  5
2C8
100
AcDbEntity
  8
0
  6
CONTINUOUS
 62
     7
100
AcDbPolyline
 90
        4
 70
     1
 10
31.75
 20
14.18
 10
32.78
 20
15.16
 10
33.0
 20
20.0
 10
32.0
 20
20.0
  0
LWPOLYLINE
  5
2C9
100
AcDbEntity
  8
0
  6
CONTINUOUS
 62
     7
100
AcDbPolyline
 90
        4
 70
     1
 10
33.28
 20
14.85
 10
32.22
 20
13.7
 10
32.0
 20
10.0
 10
33.0
 20
10.0
  0
LINE
  5
2CA
100
AcDbEntity
  8
0
  6
DOT
 62
     7
100
AcDbLine
 10
32.0
 20
17.457667
 30
0.0
 11
32.0
 21
12.542333
 31
0.0
  0
LINE
  5
2CB
100
AcDbEntity
  8
0
  6
DOT
 62
     7
100
AcDbLine
 10
33.0
 20
17.457667
 30
0.0
 11
33.0
 21
12.542333
 31
0.0
  0
LINE
  5
2CC
100
AcDbEntity
  8
0
  6
DOT
 62
     7
100
AcDbLine
 10
32.0
 20
12.375
 30
0.0
 11
33.0
 21
12.375
 31
0.0
  0
LINE
  5
2CD
100
AcDbEntity
  8
0
  6
DOT
 62
     7
100
AcDbLine
 10
32.0
 20
17.625
 30
0.0
 11
33.0
 21
17.625
 31
0.0
  0
LWPOLYLINE
  5
2CE
100
AcDbEntity
  8
0
  6
CONTINUOUS
 62
     7
100
AcDbPolyline
 90
       20
 70
     1
 10
46.875
 20
18.0
 10
48.5
 20
18.0
 42
0.149071
 10
49.25
 20
18.375
 42
0.185695
 10
49.5
 20
19.0
 10
49.5
 20
20.625
 10
50.5
 20
20.625
 10
50.5
 20
19.0
 42
0.185695
 10
50.75
 20
18.375
 42
0.149071
 10
51.5
 20
18.0
 10
53.125
 20
18.0
 10
53.125
 20
17.0
 10
51.5
 20
17.0
 42
0.149071
 10
50.75
 20
16.625
 42
0.185695
 10
50.5
 20
16.0
 10
50.5
 20
14.375
 10
49.5
 20
14.375
 10
49.5
 20
16.0
 42
0.185695
 10
49.25
 20
16.625
 42
0.149071
 10
48.5
 20
17.0
 10
46.875
 20
17.0
  0
LWPOLYLINE
  5
2CF
100
AcDbEntity
  8
0
  6
CONTINUOUS
 62
     7
100
AcDbPolyline
 90
        2
 70
     1
 10
45.0
 20
17.5
 42
-1.0
 10
55.0
 20
17.5
 42
-1.0
  0
LWPOLYLINE
  5
2D0
100
AcDbEntity
  8
0
  6
CONTINUOUS
 62
     7
100
AcDbPolyline
 90
       12
 70
     1
 10
48.0
 20
15.5
 10
48.875
 20
16.75
 42
0.333333
 10
48.875
 20
18.25
 10
48.0
 20
19.5
 10
49.25
 20
18.625
 42
0.333333
 10
50.75
 20
18.625
 10
52.0
 20
19.5
 10
51.125
 20
18.25
 42
0.333333
 10
51.125
 20
16.75
 10
52.0
 20
15.5
 10
50.75
 20
16.375
 42
0.333333
 10
49.25
 20
16.375
  0
LWPOLYLINE
  5
2D1
100
AcDbEntity
  8
0
  6
DOT
 62
     7
100
AcDbPolyline
 90
        2
 70
     1
 10
47.5
 20
17.5
 42
-1.0
 10
52.5
 20
17.5
 42
-1.0
  0
LWPOLYLINE
  5
2D2
100
AcDbEntity
  8
0
  6
DOT
 62
     7
100
AcDbPolyline
 90
        2
 70
     1
 10
48.25
 20
17.5
 42
-1.0
 10
51.75
 20
17.5
 42
-1.0
  0
LWPOLYLINE
  5
2D3
100
AcDbEntity
  8
0
  6
CONTINUOUS
 62
     7
100
AcDbPolyline
 90
        2
 70
     1
 10
73.25
 20
17.5
 42
-1.0
 10
76.75
 20
17.5
 42
-1.0
  0
ARC
  5
2D4
100
AcDbEntity
  8
0
  6
CONTINUOUS
 62
     7
100
AcDbCircle
 10
75.0
 20
17.5
 30
0.0
 40
3.75
100
AcDbArc
 50
0.0
 51
180.0
  0
ARC
  5
2D5
100
AcDbEntity
  8
0
  6
CONTINUOUS
 62
     7
100
AcDbCircle
 10
75.0
 20
17.5
 30
0.0
 40
3.75
100
AcDbArc
 50
180.0
 51
0.0
  0
LWPOLYLINE
  5
2D6
100
AcDbEntity
  8
0
  6
CONTINUOUS
 62
     7
100
AcDbPolyline
 90
        6
 70
     1
 10
75.0
 20
21.83
 10
71.25
 20
19.665
 10
71.25
 20
15.335
 10
75.0
 20
13.17
 10
78.75
 20
15.335
 10
78.75
 20
19.665
  0
LWPOLYLINE
  5
2D7
100
AcDbEntity
  8
0
  6
CONTINUOUS
 62
     7
100
AcDbPolyline
 90
        4
 70
     1
 10
76.767767
 20
19.267767
 42
-0.895043
 10
73.585786
 20
15.37868
 42
0.895043
 10
76.767767
 20
19.267767
 42
0.895043
 10
72.87868
 20
16.085786
 42
-0.895043
  0
LWPOLYLINE
  5
2D8
100
AcDbEntity
  8
0
  6
CONTINUOUS
 62
     7
100
AcDbPolyline
 90
        2
 70
     1
 10
91.5
 20
27.5
 42
-1.0
 10
83.5
 20
27.5
 42
-1.0
  0
LWPOLYLINE
  5
2D9
100
AcDbEntity
  8
0
  6
CONTINUOUS
 62
     7
100
AcDbPolyline
 90
        6
 70
     1
 10
87.5
 20
29.935625
 10
85.390625
 20
28.717812
 10
85.390625
 20
26.282187
 10
87.5
 20
25.064375
 10
89.609375
 20
26.282187
 10
89.609375
 20
28.717812
  0
LWPOLYLINE
  5
2DA
100
AcDbEntity
  8
0
  6
CONTINUOUS
 62
     7
100
AcDbPolyline
 90
        2
 70
     1
 10
90.88
 20
27.5
 42
1.000393
 10
84.12
 20
27.5
 42
1.000393
  0
LWPOLYLINE
  5
2DB
100
AcDbEntity
  8
0
  6
DOT
 62
     7
100
AcDbPolyline
 90
        2
 70
     1
 10
85.0
 20
27.5
 42
-1.0
 10
90.0
 20
27.5
 42
-1.0
  0
LWPOLYLINE
  5
2DC
100
AcDbEntity
  8
0
  6
DOT
 62
     7
100
AcDbPolyline
 90
        2
 70
     1
 10
85.75
 20
27.5
 42
-1.0
 10
89.25
 20
27.5
 42
-1.0
  0
ENDBLK
  5
2DD
100
AcDbEntity
  8
0
100
AcDbBlockEnd
  0
BLOCK
  5
2DF
100
AcDbEntity
  8
0
100
AcDbBlockBegin
  2
GEWINDE
 70
     0
 10
0.0
 20
0.0
 30
0.0
  3
GEWINDE
  1

  0
LWPOLYLINE
  5
2E0
100
AcDbEntity
  8
0
  6
CONTINUOUS
 62
     7
100
AcDbPolyline
 90
        4
 70
     1
 10
0.0
 20
0.0
 10
14.75
 20
0.0
 10
14.75
 20
7.0
 10
0.0
 20
7.0
  0
LWPOLYLINE
  5
2E1
100
AcDbEntity
  8
0
  6
DASHED
 62
     7
100
AcDbPolyline
 90
        4
 70
     1
 10
0.0
 20
0.65625
 10
14.75
 20
0.65625
 10
14.75
 20
6.34375
 10
0.0
 20
6.34375
  0
ENDBLK
  5
2E2
100
AcDbEntity
  8
0
100
AcDbBlockEnd
  0
BLOCK
  5
2E4
100
AcDbEntity
  8
0
100
AcDbBlockBegin
  2
MULTI
 70
     0
 10
0.0
 20
0.0
 30
0.0
  3
MULTI
  1

  0
LWPOLYLINE
  5
2E5
100
AcDbEntity
  8
0
  6
CONTINUOUS
 62
     7
100
AcDbPolyline
 90
        2
 70
     1
 10
26.5
 20
1.583333
 10
26.5
 20
11.641667
  0
LWPOLYLINE
  5
2E6
100
AcDbEntity
  8
0
  6
CONTINUOUS
 62
     7
100
AcDbPolyline
 90
        2
 70
     1
 10
0.0
 20
1.583333
 10
0.0
 20
11.641667
  0
LINE
  5
2E7
100
AcDbEntity
  8
0
  6
CONTINUOUS
 62
     7
100
AcDbLine
 10
13.25
 20
3.7
 30
0.0
 11
26.5
 21
3.7
 31
0.0
  0
LINE
  5
2E8
100
AcDbEntity
  8
0
  6
CONTINUOUS
 62
     7
100
AcDbLine
 10
13.25
 20
3.7
 30
0.0
 11
0.0
 21
3.7
 31
0.0
  0
MTEXT
  5
2E9
100
AcDbEntity
  8
0
100
AcDbMText
 10
11.5
 20
5.499782
 30
0.0
 40
3.081935
 41
9.676842
 71
     5
 72
     5
  1
\C7;\fArial|b0|i0|;\H3.0819353945553;26,5\P0mm
  0
ENDBLK
  5
2EA
100
AcDbEntity
  8
0
100
AcDbBlockEnd
  0
BLOCK
  5
2EC
100
AcDbEntity
  8
0
100
AcDbBlockBegin
  2
MASTER_61
 70
     2
 10
0.0
 20
0.0
 30
0.0
  3
MASTER_61
  1

  0
LWPOLYLINE
  5
2ED
100
AcDbEntity
  8
0
  6
CONTINUOUS
 62
     7
100
AcDbPolyline
 90
        4
 70
     1
 10
2.028571
 20
8.25
 10
2.028571
 20
2.75
 10
5.028571
 20
0.0
 10
5.028571
 20
11.0
  0
LWPOLYLINE
  5
2EE
100
AcDbEntity
  8
0
  6
CONTINUOUS
 62
     7
100
AcDbPolyline
 90
        4
 70
     1
 10
0.0
 20
3.0
 10
2.0
 20
3.0
 10
2.0
 20
8.0
 10
0.0
 20
8.0
  0
ENDBLK
  5
2EF
100
AcDbEntity
  8
0
100
AcDbBlockEnd
  0
BLOCK
  5
2F1
100
AcDbEntity
  8
0
100
AcDbBlockBegin
  2
MASTER_62
 70
     0
 10
0.0
 20
0.0
 30
0.0
  3
MASTER_62
  1

  0
LWPOLYLINE
  5
2F2
100
AcDbEntity
  8
0
  6
CONTINUOUS
 62
     7
100
AcDbPolyline
 90
        3
 70
     0
 10
33.0
 20
0.0
 10
18.0
 20
0.0
 10
0.0
 20
33.0
  0
MTEXT
  5
2F3
100
AcDbEntity
  8
0
100
AcDbMText
 10
-3.425577
 20
0.0
 30
0.0
 40
3.081935
 41
6.851153
 71
     5
 72
     5
  1
\C7;\fArial|b0|i0|;\H3.0819353945553;x\Px\Px
  0
ENDBLK
  5
2F4
100
AcDbEntity
  8
0
100
AcDbBlockEnd
  0
BLOCK
  5
2F6
100
AcDbEntity
  8
0
100
AcDbBlockBegin
  2
FLACHKOPF__SCHLITZ_
 70
     0
 10
0.0
 20
0.0
 30
0.0
  3
FLACHKOPF__SCHLITZ_
  1

  0
LINE
  5
2F7
100
AcDbEntity
  8
0
  6
CONTINUOUS
 62
     7
100
AcDbLine
 10
31.75
 20
27.5
 30
0.0
 11
31.75
 21
22.5
 31
0.0
  0
LINE
  5
2F8
100
AcDbEntity
  8
0
  6
CONTINUOUS
 62
     7
100
AcDbLine
 10
20.0
 20
27.5
 30
0.0
 11
20.0
 21
22.5
 31
0.0
  0
LWPOLYLINE
  5
2F9
100
AcDbEntity
  8
0
  6
CONTINUOUS
 62
     7
100
AcDbPolyline
 90
        6
 70
     1
 10
17.5
 20
27.5
 10
31.75
 20
27.5
 10
32.5
 20
26.75
 10
32.5
 20
23.25
 10
31.75
 20
22.5
 10
17.5
 20
22.5
  0
LWPOLYLINE
  5
2FA
100
AcDbEntity
  8
0
  6
CONTINUOUS
 62
     7
100
AcDbPolyline
 90
        3
 70
     0
 10
18.700962
 20
22.5
 10
20.0
 20
23.25
 10
32.5
 20
23.25
  0
LWPOLYLINE
  5
2FB
100
AcDbEntity
  8
0
  6
CONTINUOUS
 62
     7
100
AcDbPolyline
 90
        3
 70
     0
 10
18.700962
 20
27.5
 10
20.0
 20
26.75
 10
32.5
 20
26.75
  0
LWPOLYLINE
  5
2FC
100
AcDbEntity
  8
0
  6
CONTINUOUS
 62
     7
100
AcDbPolyline
 90
       10
 70
     1
 10
17.5
 20
30.0
 10
16.25
 20
30.0
 42
0.414223
 10
15.0
 20
28.75
 10
15.0
 20
25.625
 10
16.666667
 20
25.625
 10
16.666667
 20
24.375
 10
15.0
 20
24.375
 10
15.0
 20
21.25
 42
0.414223
 10
16.25
 20
20.0
 10
17.5
 20
20.0
  0
ENDBLK
  5
2FD
100
AcDbEntity
  8
0
100
AcDbBlockEnd
  0
BLOCK
  5
2FF
100
AcDbEntity
  8
0
100
AcDbBlockBegin
  2
MASTER_64
 70
     0
 10
0.0
 20
0.0
 30
0.0
  3
MASTER_64
  1

  0
LWPOLYLINE
  5
300
100
AcDbEntity
  8
0
  6
CONTINUOUS
 62
     7
100
AcDbPolyline
 90
        4
 70
     1
 10
6.25
 20
0.0
 10
18.75
 20
0.0
 10
25.0
 20
15.0
 10
0.0
 20
15.0
  0
ENDBLK
  5
301
100
AcDbEntity
  8
0
100
AcDbBlockEnd
  0
ENDSEC
  0
SECTION
  2
ENTITIES
  0
LWPOLYLINE
  5
32
102
{ACAD_REACTORS
330
31
102
}
100
AcDbEntity
  8
0
  6
CONTINUOUS
 62
     7
100
AcDbPolyline
 90
       16
 70
     1
 10
24.5
 20
16.471429
 10
24.5
 20
20.571429
 10
21.912772
 20
20.571429
 42
-0.869539
 10
4.087228
 20
20.571429
 10
1.5
 20
20.571429
 10
1.5
 20
16.471429
 10
0.0
 20
16.471429
 10
0.0
 20
9.171429
 10
1.5
 20
9.171429
 10
1.5
 20
0.0
 10
5.229044
 20
0.0
 42
-0.202218
 10
20.770956
 20
0.0
 10
24.5
 20
0.0
 10
24.5
 20
9.171429
 10
27.5
 20
9.171429
 10
27.5
 20
16.471429
  0
LWPOLYLINE
  5
33
102
{ACAD_REACTORS
330
31
102
}
100
AcDbEntity
  8
0
  6
CONTINUOUS
 62
     7
100
AcDbPolyline
 90
        2
 70
     1
 10
25.6
 20
8.071429
 42
-1.0
 10
23.4
 20
8.071429
 42
-1.0
  0
LWPOLYLINE
  5
34
102
{ACAD_REACTORS
330
31
102
}
100
AcDbEntity
  8
0
  6
CONTINUOUS
 62
     7
100
AcDbPolyline
 90
        2
 70
     1
 10
2.6
 20
8.071429
 42
-1.0
 10
0.4
 20
8.071429
 42
-1.0
  0
LWPOLYLINE
  5
35
102
{ACAD_REACTORS
330
31
102
}
100
AcDbEntity
  8
0
  6
CONTINUOUS
 62
     7
100
AcDbPolyline
 90
        2
 70
     1
 10
25.6
 20
17.571429
 42
-1.0
 10
23.4
 20
17.571429
 42
-1.0
  0
LWPOLYLINE
  5
36
102
{ACAD_REACTORS
330
31
102
}
100
AcDbEntity
  8
0
  6
CONTINUOUS
 62
     7
100
AcDbPolyline
 90
        2
 70
     1
 10
2.6
 20
17.571429
 42
-1.0
 10
0.4
 20
17.571429
 42
-1.0
  0
LWPOLYLINE
  5
37
102
{ACAD_REACTORS
330
31
102
}
100
AcDbEntity
  8
0
  6
CONTINUOUS
 62
     7
100
AcDbPolyline
 90
        7
 70
     1
 10
10.472889
 20
8.484739
 42
0.048407
 10
10.356041
 20
8.662221
 42
0.70737
 10
8.4
 20
7.971429
 42
0.132986
 10
8.550269
 20
7.416441
 10
10.541406
 20
4.510329
 42
0.759939
 10
12.6
 20
5.071429
 42
0.182486
 10
12.325535
 20
5.798403
  0
LWPOLYLINE
  5
38
102
{ACAD_REACTORS
330
31
102
}
100
AcDbEntity
  8
0
  6
CONTINUOUS
 62
     7
100
AcDbPolyline
 90
       16
 70
     1
 10
24.5
 20
29.528571
 10
24.5
 20
25.428571
 10
21.912772
 20
25.428571
 42
0.869539
 10
4.087228
 20
25.428571
 10
1.5
 20
25.428571
 10
1.5
 20
29.528571
 10
0.0
 20
29.528571
 10
0.0
 20
36.828571
 10
1.5
 20
36.828571
 10
1.5
 20
46.0
 10
5.229044
 20
46.0
 42
0.202218
 10
20.770956
 20
46.0
 10
24.5
 20
46.0
 10
24.5
 20
36.828571
 10
27.5
 20
36.828571
 10
27.5
 20
29.528571
  0
LWPOLYLINE
  5
39
102
{ACAD_REACTORS
330
31
102
}
100
AcDbEntity
  8
0
  6
CONTINUOUS
 62
     7
100
AcDbPolyline
 90
        2
 70
     1
 10
25.6
 20
37.928571
 42
1.0
 10
23.4
 20
37.928571
 42
1.0
  0
LWPOLYLINE
  5
3A
102
{ACAD_REACTORS
330
31
102
}
100
AcDbEntity
  8
0
  6
CONTINUOUS
 62
     7
100
AcDbPolyline
 90
        2
 70
     1
 10
2.6
 20
37.928571
 42
1.0
 10
0.4
 20
37.928571
 42
1.0
  0
LWPOLYLINE
  5
3B
102
{ACAD_REACTORS
330
31
102
}
100
AcDbEntity
  8
0
  6
CONTINUOUS
 62
     7
100
AcDbPolyline
 90
        2
 70
     1
 10
25.6
 20
28.428571
 42
1.0
 10
23.4
 20
28.428571
 42
1.0
  0
LWPOLYLINE
  5
3C
102
{ACAD_REACTORS
330
31
102
}
100
AcDbEntity
  8
0
  6
CONTINUOUS
 62
     7
100
AcDbPolyline
 90
        2
 70
     1
 10
2.6
 20
28.428571
 42
1.0
 10
0.4
 20
28.428571
 42
1.0
  0
LWPOLYLINE
  5
3D
102
{ACAD_REACTORS
330
31
102
}
100
AcDbEntity
  8
0
  6
CONTINUOUS
 62
     7
100
AcDbPolyline
 90
        7
 70
     1
 10
10.472889
 20
37.515261
 42
-0.048407
 10
10.356041
 20
37.337779
 42
-0.70737
 10
8.4
 20
38.028571
 42
-0.132986
 10
8.550269
 20
38.583559
 10
10.541406
 20
41.489671
 42
-0.759939
 10
12.6
 20
40.928571
 42
-0.182486
 10
12.325535
 20
40.201597
  0
ENDSEC
  0
SECTION
  2
OBJECTS
  0
DICTIONARY
  5
C
100
AcDbDictionary
  3
ACAD_GROUP
350
D
  3
ACAD_MLINESTYLE
350
1B
  0
DICTIONARY
  5
D
102
{ACAD_REACTORS
330
C
102
}
100
AcDbDictionary
  3
VISIOGROUP_0
350
31
  0
DICTIONARY
  5
1B
102
{ACAD_REACTORS
330
C
102
}
100
AcDbDictionary
  3
STANDARD
350
1C
  0
MLINESTYLE
  5
1C
102
{ACAD_REACTORS
330
1B
102
}
100
AcDbMlineStyle
  2
STANDARD
 70
     0
  3

 62
   256
 51
90.0
 52
90.0
 71
     2
 49
0.5
 62
   256
  6
BYLAYER
 49
-0.5
 62
   256
  6
BYLAYER
  0
GROUP
  5
31
102
{ACAD_REACTORS
330
D
102
}
100
AcDbGroup
300
Group created by UlrichC.
 70
     0
 71
     1
340
32
340
33
340
34
340
35
340
36
340
37
340
38
340
39
340
3A
340
3B
340
3C
340
3D
  0
ENDSEC
  0
EOF

