  0
SECTION
  2
HEADER
  9
$ACADVER
  1
AC1014
  9
$ACADMAINTVER
 70
     0
  9
$DWGCODEPAGE
  3
ANSI_1252
  9
$INSBASE
 10
0.0
 20
0.0
 30
0.0
  9
$EXTMIN
 10
0.0
 20
0.0
 30
0.0
  9
$EXTMAX
 10
558.8
 20
431.8
 30
0.0
  9
$LIMMIN
 10
0.0
 20
0.0
  9
$LIMMAX
 10
12.0
 20
9.0
  9
$ORTHOMODE
 70
     0
  9
$REGENMODE
 70
     1
  9
$FILLMODE
 70
     0
  9
$QTEXTMODE
 70
     0
  9
$MIRRTEXT
 70
     1
  9
$DRAGMODE
 70
     2
  9
$LTSCALE
 40
5.588
  9
$OSMODE
 70
     0
  9
$ATTMODE
 70
     1
  9
$TEXTSIZE
 40
0.2
  9
$TRACEWID
 40
0.05
  9
$TEXTSTYLE
  7
STANDARD
  9
$CLAYER
  8
0
  9
$CELTYPE
  6
BYLAYER
  9
$CECOLOR
 62
   256
  9
$CELTSCALE
 40
1.0
  9
$DELOBJ
 70
     1
  9
$DISPSILH
 70
     0
  9
$DIMSCALE
 40
1.0
  9
$DIMASZ
 40
0.18
  9
$DIMEXO
 40
0.0625
  9
$DIMDLI
 40
0.38
  9
$DIMRND
 40
0.0
  9
$DIMDLE
 40
0.0
  9
$DIMEXE
 40
0.18
  9
$DIMTP
 40
0.0
  9
$DIMTM
 40
0.0
  9
$DIMTXT
 40
0.18
  9
$DIMCEN
 40
0.09
  9
$DIMTSZ
 40
0.0
  9
$DIMTOL
 70
     0
  9
$DIMLIM
 70
     0
  9
$DIMTIH
 70
     0
  9
$DIMTOH
 70
     0
  9
$DIMSE1
 70
     0
  9
$DIMSE2
 70
     0
  9
$DIMTAD
 70
     1
  9
$DIMZIN
 70
     0
  9
$DIMBLK
  1

  9
$DIMASO
 70
     1
  9
$DIMSHO
 70
     1
  9
$DIMPOST
  1

  9
$DIMAPOST
  1

  9
$DIMALT
 70
     0
  9
$DIMALTD
 70
     2
  9
$DIMALTF
 40
25.4
  9
$DIMLFAC
 40
1.0
  9
$DIMTOFL
 70
     0
  9
$DIMTVP
 40
0.0
  9
$DIMTIX
 70
     0
  9
$DIMSOXD
 70
     0
  9
$DIMSAH
 70
     0
  9
$DIMBLK1
  1

  9
$DIMBLK2
  1

  9
$DIMSTYLE
  2
STANDARD
  9
$DIMCLRD
 70
     0
  9
$DIMCLRE
 70
     0
  9
$DIMCLRT
 70
     0
  9
$DIMTFAC
 40
1.0
  9
$DIMGAP
 40
0.09
  9
$DIMJUST
 70
     0
  9
$DIMSD1
 70
     0
  9
$DIMSD2
 70
     0
  9
$DIMTOLJ
 70
     1
  9
$DIMTZIN
 70
     0
  9
$DIMALTZ
 70
     0
  9
$DIMALTTZ
 70
     0
  9
$DIMFIT
 70
     3
  9
$DIMUPT
 70
     0
  9
$DIMUNIT
 70
     2
  9
$DIMDEC
 70
     2
  9
$DIMTDEC
 70
     4
  9
$DIMALTU
 70
     2
  9
$DIMALTTD
 70
     2
  9
$DIMTXSTY
  7
STANDARD
  9
$DIMAUNIT
 70
     0
  9
$LUNITS
 70
     2
  9
$LUPREC
 70
     4
  9
$SKETCHINC
 40
0.1
  9
$FILLETRAD
 40
0.5
  9
$AUNITS
 70
     0
  9
$AUPREC
 70
     0
  9
$MENU
  1
.
  9
$ELEVATION
 40
0.0
  9
$PELEVATION
 40
0.0
  9
$THICKNESS
 40
0.0
  9
$LIMCHECK
 70
     0
  9
$BLIPMODE
 70
     0
  9
$CHAMFERA
 40
0.5
  9
$CHAMFERB
 40
0.5
  9
$CHAMFERC
 40
1.0
  9
$CHAMFERD
 40
0.0
  9
$SKPOLY
 70
     0
  9
$TDCREATE
 40
2450772.666465926
  9
$TDUPDATE
 40
2458662.695833322
  9
$TDINDWG
 40
0.0011564931
  9
$TDUSRTIMER
 40
0.0000000000
  9
$USRTIMER
 70
     1
  9
$ANGBASE
 50
0.0
  9
$ANGDIR
 70
     0
  9
$PDMODE
 70
     0
  9
$PDSIZE
 40
0.0
  9
$PLINEWID
 40
0.0
  9
$COORDS
 70
     1
  9
$SPLFRAME
 70
     0
  9
$SPLINETYPE
 70
     6
  9
$SPLINESEGS
 70
     8
  9
$ATTDIA
 70
     0
  9
$ATTREQ
 70
     1
  9
$HANDLING
 70
     1
  9
$HANDSEED
  5
333
  9
$SURFTAB1
 70
     6
  9
$SURFTAB2
 70
     6
  9
$SURFTYPE
 70
     6
  9
$SURFU
 70
     6
  9
$SURFV
 70
     6
  9
$UCSNAME
  2

  9
$UCSORG
 10
0.0
 20
0.0
 30
0.0
  9
$UCSXDIR
 10
1.0
 20
0.0
 30
0.0
  9
$UCSYDIR
 10
0.0
 20
1.0
 30
0.0
  9
$PUCSNAME
  2

  9
$PUCSORG
 10
0.0
 20
0.0
 30
0.0
  9
$PUCSXDIR
 10
1.0
 20
0.0
 30
0.0
  9
$PUCSYDIR
 10
0.0
 20
1.0
 30
0.0
  9
$USERI1
 70
     0
  9
$USERI2
 70
     0
  9
$USERI3
 70
     0
  9
$USERI4
 70
     0
  9
$USERI5
 70
     0
  9
$USERR1
 40
0.0
  9
$USERR2
 40
0.0
  9
$USERR3
 40
0.0
  9
$USERR4
 40
0.0
  9
$USERR5
 40
0.0
  9
$WORLDVIEW
 70
     1
  9
$SHADEDGE
 70
     3
  9
$SHADEDIF
 70
    70
  9
$TILEMODE
 70
     1
  9
$MAXACTVP
 70
    48
  9
$PINSBASE
 10
0.0
 20
0.0
 30
0.0
  9
$PLIMCHECK
 70
     0
  9
$PEXTMIN
 10
0.0
 20
0.0
 30
0.0
  9
$PEXTMAX
 10
0.0
 20
0.0
 30
0.0
  9
$PLIMMIN
 10
0.0
 20
0.0
  9
$PLIMMAX
 10
12.0
 20
9.0
  9
$UNITMODE
 70
     0
  9
$VISRETAIN
 70
     1
  9
$PLINEGEN
 70
     0
  9
$PSLTSCALE
 70
     1
  9
$TREEDEPTH
 70
  3020
  9
$PICKSTYLE
 70
     1
  9
$CMLSTYLE
  2
STANDARD
  9
$CMLJUST
 70
     0
  9
$CMLSCALE
 40
1.0
  9
$PROXYGRAPHICS
 70
     1
  9
$MEASUREMENT
 70
     0
  0
ENDSEC
  0
SECTION
  2
CLASSES
  0
CLASS
  1
LWPOLYLINE
  2
AcDbPolyline
  3
"AutoCAD"
 90
        0
280
     0
281
     1
  0
CLASS
  1
IMAGE
  2
AcDbRasterImage
  3
ISM
 90
      127
280
     0
281
     1
  0
CLASS
  1
OLE2FRAME
  2
AcDbOle2Frame
  3
""
 90
        0
280
     0
281
     1
  0
CLASS
  1
HATCH
  2
AcDbHatch
  3
"ACAD_SEDONA"
 90
        0
280
     0
281
     1
  0
CLASS
  1
DICTIONARYVAR
  2
AcDbDictionaryVar
  3
"AutoCAD"
 90
        0
280
     0
281
     0
  0
CLASS
  1
RASTERVARIABLES
  2
AcDbRasterVariables
  3
ISM
 90
        0
280
     0
281
     0
  0
CLASS
  1
IMAGEDEF
  2
AcDbRasterImageDef
  3
ISM
 90
        0
280
     0
281
     0
  0
CLASS
  1
IMAGEDEF_REACTOR
  2
AcDbRasterImageDefReactor
  3
ISM
 90
        1
280
     0
281
     0
  0
CLASS
  1
IDBUFFER
  2
AcDbIdBuffer
  3
"Acad"
 90
        0
280
     0
281
     0
  0
CLASS
  1
SPATIAL_FILTER
  2
AcDbSpatialFilter
  3
"Acad"
 90
        0
280
     0
281
     0
  0
CLASS
  1
XRECORD
  2
AcDbXrecord
  3
"<Built In>"
 90
        0
280
     0
281
     0
  0
CLASS
  1
SORTENTSTABLE
  2
AcDbSortentsTable
  3
"AutoCAD"
 90
        0
280
     0
281
     0
  0
CLASS
  1
LAYER_INDEX
  2
AcDbLayerIndex
  3
"Acad"
 90
        0
280
     0
281
     0
  0
CLASS
  1
SPATIAL_INDEX
  2
AcDbSpatialIndex
  3
"Acad"
 90
        0
280
     0
281
     0
  0
CLASS
  1
OBJECT_PTR
  2
CAseDLPNTableRecord
  3
"ASE-LPNTableRecord"
 90
        1
280
     0
281
     0
  0
CLASS
  1
LAYOUT
  2
AcDbLayout
  3
"AutoCAD 2000"
 90
        1
280
     0
281
     0
  0
CLASS
  1
PLOTSETTINGS
  2
AcDbPlotSettings
  3
"AutoCAD 2000"
 90
        1
280
     0
281
     0
  0
CLASS
  1
ACDBDICTIONARYWDFLT
  2
AcDbDictionaryWithDefault
  3
"AutoCAD 2000"
 90
        1
280
     0
281
     0
  0
CLASS
  1
ACDBPLACEHOLDER
  2
AcDbPlaceHolder
  3
"AutoCAD 2000"
 90
        1
280
     0
281
     0
  0
CLASS
  1
VBA_PROJECT
  2
AcDbVbaProject
  3
"acadvba"
 90
        1
280
     0
281
     0
  0
CLASS
  1
WIPEOUT
  2
AcDbWipeout
  3
WipeOut|AutoCAD Express Tool|expresstools@autodesk.com
 90
      127
280
     0
281
     1
  0
CLASS
  1
WIPEOUTVARIABLES
  2
AcDbWipeoutVariables
  3
WipeOut|AutoCAD Express Tool|expresstools@autodesk.com
 90
        0
280
     0
281
     0
  0
CLASS
  1
RTEXT
  2
RText
  3
RText|AutoCAD Express Tool|expresstools@autodesk.com
 90
        0
280
     0
281
     1
  0
CLASS
  1
ARCALIGNEDTEXT
  2
AcDbArcAlignedText
  3
ATEXT|AutoCAD Express Tool|expresstools@autodesk.com
 90
        0
280
     0
281
     1
  0
ENDSEC
  0
SECTION
  2
TABLES
  0
TABLE
  2
VPORT
  5
8
100
AcDbSymbolTable
 70
     1
  0
VPORT
  5
25
100
AcDbSymbolTableRecord
100
AcDbViewportTableRecord
  2
*ACTIVE
 70
     0
 10
0.0
 20
0.0
 11
1.0
 21
1.0
 12
279.4
 22
215.9
 13
0.0
 23
0.0
 14
0.5
 24
0.5
 15
0.5
 25
0.5
 16
0.0
 26
0.0
 36
1.0
 17
0.0
 27
0.0
 37
0.0
 40
431.8
 41
1.294118
 42
50.0
 43
0.0
 44
0.0
 50
0.0
 51
0.0
 71
     0
 72
   100
 73
     1
 74
     1
 75
     0
 76
     0
 77
     0
 78
     0
  0
ENDTAB
  0
TABLE
  2
LTYPE
  5
5
100
AcDbSymbolTable
 70
     7
  0
LTYPE
  5
12
100
AcDbSymbolTableRecord
100
AcDbLinetypeTableRecord
  2
BYBLOCK
 70
    64
  3

 72
    65
 73
     0
 40
0.0
  0
LTYPE
  5
13
100
AcDbSymbolTableRecord
100
AcDbLinetypeTableRecord
  2
BYLAYER
 70
    64
  3

 72
    65
 73
     0
 40
0.0
  0
LTYPE
  5
14
100
AcDbSymbolTableRecord
100
AcDbLinetypeTableRecord
  2
CONTINUOUS
 70
     0
  3
Solid line
 72
    65
 73
     0
 40
0.0
  0
LTYPE
  5
12C
100
AcDbSymbolTableRecord
100
AcDbLinetypeTableRecord
  2
DASHDOT
 70
     0
  3
DASHDOT
 72
    65
 73
     4
 40
1.0
 49
0.5
 74
     0
 49
-0.25
 74
     0
 49
0.0
 74
     0
 49
-0.25
 74
     0
  0
LTYPE
  5
188
100
AcDbSymbolTableRecord
100
AcDbLinetypeTableRecord
  2
DASHEDX2
 70
     0
  3
DASHEDX2
 72
    65
 73
     2
 40
1.25
 49
0.75
 74
     0
 49
-0.5
 74
     0
  0
LTYPE
  5
1EC
100
AcDbSymbolTableRecord
100
AcDbLinetypeTableRecord
  2
DOT
 70
     0
  3
DOT
 72
    65
 73
     2
 40
0.25
 49
0.0
 74
     0
 49
-0.25
 74
     0
  0
LTYPE
  5
2B0
100
AcDbSymbolTableRecord
100
AcDbLinetypeTableRecord
  2
DASHED
 70
     0
  3
DASHED
 72
    65
 73
     2
 40
0.75
 49
0.5
 74
     0
 49
-0.25
 74
     0
  0
ENDTAB
  0
TABLE
  2
LAYER
  5
2
100
AcDbSymbolTable
 70
     2
  0
LAYER
  5
E
100
AcDbSymbolTableRecord
100
AcDbLayerTableRecord
  2
0
 70
     0
 62
     7
  6
CONTINUOUS
  0
LAYER
  5
7C
100
AcDbSymbolTableRecord
100
AcDbLayerTableRecord
  2
BEMA\U+00DFUNGEN
 70
     0
 62
     7
  6
CONTINUOUS
  0
ENDTAB
  0
TABLE
  2
STYLE
  5
3
100
AcDbSymbolTable
 70
     1
  0
STYLE
  5
F
100
AcDbSymbolTableRecord
100
AcDbTextStyleTableRecord
  2
STANDARD
 70
     0
 40
0.0
 41
1.0
 50
0.0
 71
     0
 42
0.2
  3
txt.shx
  4

  0
ENDTAB
  0
TABLE
  2
VIEW
  5
6
100
AcDbSymbolTable
 70
     0
  0
ENDTAB
  0
TABLE
  2
UCS
  5
7
100
AcDbSymbolTable
 70
     0
  0
ENDTAB
  0
TABLE
  2
APPID
  5
9
100
AcDbSymbolTable
 70
     1
  0
APPID
  5
10
100
AcDbSymbolTableRecord
100
AcDbRegAppTableRecord
  2
ACAD
 70
     0
  0
ENDTAB
  0
TABLE
  2
DIMSTYLE
  5
A
100
AcDbSymbolTable
 70
     1
  0
DIMSTYLE
105
1D
100
AcDbSymbolTableRecord
100
AcDbDimStyleTableRecord
  2
STANDARD
 70
     0
  3

  4

  5

  6

  7

 40
1.0
 41
0.18
 42
0.0625
 43
0.38
 44
0.18
 45
0.0
 46
0.0
 47
0.0
 48
0.0
 71
     0
 72
     0
 73
     1
 74
     1
 75
     0
 76
     0
 77
     0
 78
     0
140
0.18
141
0.09
142
0.0
143
25.4
144
1.0
145
0.0
146
1.0
147
0.09
170
     0
171
     2
172
     0
173
     0
174
     0
175
     0
176
     0
177
     0
178
     0
270
     2
271
     4
272
     4
273
     2
274
     2
275
     0
280
     0
281
     0
282
     0
283
     1
284
     0
285
     0
286
     0
287
     3
288
     0
340
F
  0
ENDTAB
  0
TABLE
  2
BLOCK_RECORD
  5
1
100
AcDbSymbolTable
 70
    62
  0
BLOCK_RECORD
  5
18
100
AcDbSymbolTableRecord
100
AcDbBlockTableRecord
  2
*MODEL_SPACE
  0
BLOCK_RECORD
  5
15
100
AcDbSymbolTableRecord
100
AcDbBlockTableRecord
  2
*PAPER_SPACE
  0
BLOCK_RECORD
  5
6E
100
AcDbSymbolTableRecord
100
AcDbBlockTableRecord
  2
SMARTCARD__SICH__ID-KTE
  0
BLOCK_RECORD
  5
71
100
AcDbSymbolTableRecord
100
AcDbBlockTableRecord
  2
TELEARBEITER-_HAUS
  0
BLOCK_RECORD
  5
74
100
AcDbSymbolTableRecord
100
AcDbBlockTableRecord
  2
HEIMB\U+00FCRO
  0
BLOCK_RECORD
  5
77
100
AcDbSymbolTableRecord
100
AcDbBlockTableRecord
  2
WOLKE
  0
BLOCK_RECORD
  5
7A
100
AcDbSymbolTableRecord
100
AcDbBlockTableRecord
  2
DF\U+00DC-_VERBINDUNG
  0
BLOCK_RECORD
  5
80
100
AcDbSymbolTableRecord
100
AcDbBlockTableRecord
  2
LAPTOP
  0
BLOCK_RECORD
  5
9B
100
AcDbSymbolTableRecord
100
AcDbBlockTableRecord
  2
2D-DOPPEL
  0
BLOCK_RECORD
  5
9F
100
AcDbSymbolTableRecord
100
AcDbBlockTableRecord
  2
KREIS
  0
BLOCK_RECORD
  5
A8
100
AcDbSymbolTableRecord
100
AcDbBlockTableRecord
  2
HORIZONTALER_BALKEN
  0
BLOCK_RECORD
  5
B0
100
AcDbSymbolTableRecord
100
AcDbBlockTableRecord
  2
MODEM-BANK
  0
BLOCK_RECORD
  5
B3
100
AcDbSymbolTableRecord
100
AcDbBlockTableRecord
  2
KABELMODEMS
  0
BLOCK_RECORD
  5
B6
100
AcDbSymbolTableRecord
100
AcDbBlockTableRecord
  2
SENDETURM
  0
BLOCK_RECORD
  5
CE
100
AcDbSymbolTableRecord
100
AcDbBlockTableRecord
  2
ORT
  0
BLOCK_RECORD
  5
108
100
AcDbSymbolTableRecord
100
AcDbBlockTableRecord
  2
FELD
  0
BLOCK_RECORD
  5
10C
100
AcDbSymbolTableRecord
100
AcDbBlockTableRecord
  2
MASTER_17
  0
BLOCK_RECORD
  5
112
100
AcDbSymbolTableRecord
100
AcDbBlockTableRecord
  2
MASTER_18
  0
BLOCK_RECORD
  5
11A
100
AcDbSymbolTableRecord
100
AcDbBlockTableRecord
  2
MASTER_19
  0
BLOCK_RECORD
  5
11E
100
AcDbSymbolTableRecord
100
AcDbBlockTableRecord
  2
MASTER_20
  0
BLOCK_RECORD
  5
122
100
AcDbSymbolTableRecord
100
AcDbBlockTableRecord
  2
MA\U+00DF
  0
BLOCK_RECORD
  5
12A
100
AcDbSymbolTableRecord
100
AcDbBlockTableRecord
  2
M-LINIE
  0
BLOCK_RECORD
  5
12F
100
AcDbSymbolTableRecord
100
AcDbBlockTableRecord
  2
BOHRKREIS
  0
BLOCK_RECORD
  5
134
100
AcDbSymbolTableRecord
100
AcDbBlockTableRecord
  2
MATRIX
  0
BLOCK_RECORD
  5
159
100
AcDbSymbolTableRecord
100
AcDbBlockTableRecord
  2
BOHRUNG2
  0
BLOCK_RECORD
  5
161
100
AcDbSymbolTableRecord
100
AcDbBlockTableRecord
  2
TRENNER
  0
BLOCK_RECORD
  5
165
100
AcDbSymbolTableRecord
100
AcDbBlockTableRecord
  2
KREIS_27
  0
BLOCK_RECORD
  5
16C
100
AcDbSymbolTableRecord
100
AcDbBlockTableRecord
  2
BOHRUNG
  0
BLOCK_RECORD
  5
171
100
AcDbSymbolTableRecord
100
AcDbBlockTableRecord
  2
TEXT
  0
BLOCK_RECORD
  5
17A
100
AcDbSymbolTableRecord
100
AcDbBlockTableRecord
  2
MASTER_30
  0
BLOCK_RECORD
  5
17E
100
AcDbSymbolTableRecord
100
AcDbBlockTableRecord
  2
MASTER_31
  0
BLOCK_RECORD
  5
182
100
AcDbSymbolTableRecord
100
AcDbBlockTableRecord
  2
MASTER_32
  0
BLOCK_RECORD
  5
186
100
AcDbSymbolTableRecord
100
AcDbBlockTableRecord
  2
P-LINIE
  0
BLOCK_RECORD
  5
18B
100
AcDbSymbolTableRecord
100
AcDbBlockTableRecord
  2
MASTER_34
  0
BLOCK_RECORD
  5
18F
100
AcDbSymbolTableRecord
100
AcDbBlockTableRecord
  2
RECTANGLE_153
  0
BLOCK_RECORD
  5
193
100
AcDbSymbolTableRecord
100
AcDbBlockTableRecord
  2
CIRCLE_168
  0
BLOCK_RECORD
  5
197
100
AcDbSymbolTableRecord
100
AcDbBlockTableRecord
  2
MASTER_37
  0
BLOCK_RECORD
  5
19B
100
AcDbSymbolTableRecord
100
AcDbBlockTableRecord
  2
M-LINIE_193
  0
BLOCK_RECORD
  5
19F
100
AcDbSymbolTableRecord
100
AcDbBlockTableRecord
  2
FLEX
  0
BLOCK_RECORD
  5
1A7
100
AcDbSymbolTableRecord
100
AcDbBlockTableRecord
  2
MASTER_40
  0
BLOCK_RECORD
  5
1CC
100
AcDbSymbolTableRecord
100
AcDbBlockTableRecord
  2
MASTER_41
  0
BLOCK_RECORD
  5
1D1
100
AcDbSymbolTableRecord
100
AcDbBlockTableRecord
  2
MASTER_42
  0
BLOCK_RECORD
  5
1D9
100
AcDbSymbolTableRecord
100
AcDbBlockTableRecord
  2
MASTER_43
  0
BLOCK_RECORD
  5
1E5
100
AcDbSymbolTableRecord
100
AcDbBlockTableRecord
  2
FLACHKOPF_OBEN
  0
BLOCK_RECORD
  5
1F0
100
AcDbSymbolTableRecord
100
AcDbBlockTableRecord
  2
MASTER_45
  0
BLOCK_RECORD
  5
1F4
100
AcDbSymbolTableRecord
100
AcDbBlockTableRecord
  2
ACHTECK
  0
BLOCK_RECORD
  5
1F8
100
AcDbSymbolTableRecord
100
AcDbBlockTableRecord
  2
MASTER_47
  0
BLOCK_RECORD
  5
24E
100
AcDbSymbolTableRecord
100
AcDbBlockTableRecord
  2
MASTER_48
  0
BLOCK_RECORD
  5
263
100
AcDbSymbolTableRecord
100
AcDbBlockTableRecord
  2
SUBTITLE
  0
BLOCK_RECORD
  5
267
100
AcDbSymbolTableRecord
100
AcDbBlockTableRecord
  2
RAHMEN
  0
BLOCK_RECORD
  5
28C
100
AcDbSymbolTableRecord
100
AcDbBlockTableRecord
  2
MASTER_51
  0
BLOCK_RECORD
  5
290
100
AcDbSymbolTableRecord
100
AcDbBlockTableRecord
  2
TITLE
  0
BLOCK_RECORD
  5
294
100
AcDbSymbolTableRecord
100
AcDbBlockTableRecord
  2
DESCRIPTION
  0
BLOCK_RECORD
  5
298
100
AcDbSymbolTableRecord
100
AcDbBlockTableRecord
  2
MASTER_54
  0
BLOCK_RECORD
  5
2A0
100
AcDbSymbolTableRecord
100
AcDbBlockTableRecord
  2
MASTER_55
  0
BLOCK_RECORD
  5
2AD
100
AcDbSymbolTableRecord
100
AcDbBlockTableRecord
  2
MASTER_56
  0
BLOCK_RECORD
  5
2B3
100
AcDbSymbolTableRecord
100
AcDbBlockTableRecord
  2
MASTER_57
  0
BLOCK_RECORD
  5
2B9
100
AcDbSymbolTableRecord
100
AcDbBlockTableRecord
  2
SCREWS
  0
BLOCK_RECORD
  5
30F
100
AcDbSymbolTableRecord
100
AcDbBlockTableRecord
  2
GEWINDE
  0
BLOCK_RECORD
  5
314
100
AcDbSymbolTableRecord
100
AcDbBlockTableRecord
  2
MULTI
  0
BLOCK_RECORD
  5
31C
100
AcDbSymbolTableRecord
100
AcDbBlockTableRecord
  2
MASTER_61
  0
BLOCK_RECORD
  5
321
100
AcDbSymbolTableRecord
100
AcDbBlockTableRecord
  2
MASTER_62
  0
BLOCK_RECORD
  5
326
100
AcDbSymbolTableRecord
100
AcDbBlockTableRecord
  2
FLACHKOPF__SCHLITZ_
  0
BLOCK_RECORD
  5
32F
100
AcDbSymbolTableRecord
100
AcDbBlockTableRecord
  2
MASTER_64
  0
ENDTAB
  0
ENDSEC
  0
SECTION
  2
BLOCKS
  0
BLOCK
  5
19
100
AcDbEntity
  8
0
100
AcDbBlockBegin
  2
*MODEL_SPACE
 70
     0
 10
0.0
 20
0.0
 30
0.0
  3
*MODEL_SPACE
  1

  0
ENDBLK
  5
1A
100
AcDbEntity
  8
0
100
AcDbBlockEnd
  0
BLOCK
  5
16
100
AcDbEntity
 67
     1
  8
0
100
AcDbBlockBegin
  2
*PAPER_SPACE
 70
     0
 10
0.0
 20
0.0
 30
0.0
  3
*PAPER_SPACE
  1

  0
ENDBLK
  5
17
100
AcDbEntity
 67
     1
  8
0
100
AcDbBlockEnd
  0
BLOCK
  5
6F
100
AcDbEntity
  8
0
100
AcDbBlockBegin
  2
SMARTCARD__SICH__ID-KTE
 70
     0
 10
0.0
 20
0.0
 30
0.0
  3
SMARTCARD__SICH__ID-KTE
  1

  0
ENDBLK
  5
70
100
AcDbEntity
  8
0
100
AcDbBlockEnd
  0
BLOCK
  5
72
100
AcDbEntity
  8
0
100
AcDbBlockBegin
  2
TELEARBEITER-_HAUS
 70
     0
 10
0.0
 20
0.0
 30
0.0
  3
TELEARBEITER-_HAUS
  1

  0
ENDBLK
  5
73
100
AcDbEntity
  8
0
100
AcDbBlockEnd
  0
BLOCK
  5
75
100
AcDbEntity
  8
0
100
AcDbBlockBegin
  2
HEIMB\U+00FCRO
 70
     0
 10
0.0
 20
0.0
 30
0.0
  3
HEIMB\U+00FCRO
  1

  0
ENDBLK
  5
76
100
AcDbEntity
  8
0
100
AcDbBlockEnd
  0
BLOCK
  5
78
100
AcDbEntity
  8
0
100
AcDbBlockBegin
  2
WOLKE
 70
     0
 10
0.0
 20
0.0
 30
0.0
  3
WOLKE
  1

  0
ENDBLK
  5
79
100
AcDbEntity
  8
0
100
AcDbBlockEnd
  0
BLOCK
  5
7B
100
AcDbEntity
  8
0
100
AcDbBlockBegin
  2
DF\U+00DC-_VERBINDUNG
 70
     0
 10
0.0
 20
0.0
 30
0.0
  3
DF\U+00DC-_VERBINDUNG
  1

  0
LWPOLYLINE
  5
7D
102
{ACAD_REACTORS
330
7E
102
}
100
AcDbEntity
  8
BEMA\U+00DFUNGEN
  6
CONTINUOUS
100
AcDbPolyline
 90
        6
 70
     1
 10
0.169333
 20
9.553222
 10
16.044333
 20
12.728222
 10
13.663083
 20
8.283222
 10
25.569333
 20
9.553222
 10
9.694333
 20
6.378222
 10
12.075583
 20
10.823222
  0
HATCH
  5
7E
100
AcDbEntity
  8
BEMA\U+00DFUNGEN
 62
     2
100
AcDbHatch
 10
0.0
 20
0.0
 30
0.0
210
0.0
220
0.0
230
1.0
  2
SOLID
 70
     1
 71
     1
 91
        1
 92
        3
 72
     0
 73
     1
 93
        6
 10
0.1693333333333344
 20
9.5532222222222192
 10
16.044333333333334
 20
12.72822222222222
 10
13.663083333333333
 20
8.283222222222216
 10
25.569333333333336
 20
9.5532222222222192
 10
9.6943333333333346
 20
6.3782222222222194
 10
12.075583333333334
 20
10.823222222222219
 97
       39
330
31
330
33
330
34
330
35
330
36
330
37
330
38
330
39
330
3A
330
3B
330
4C
330
4E
330
50
330
52
330
54
330
55
330
56
330
57
330
58
330
59
330
5A
330
5B
330
5C
330
5D
330
5E
330
5F
330
62
330
63
330
64
330
65
330
66
330
67
330
68
330
69
330
6A
330
6B
330
6C
330
6D
330
7D
 75
     0
 76
     1
 98
        0
  0
ENDBLK
  5
7F
100
AcDbEntity
  8
0
100
AcDbBlockEnd
  0
BLOCK
  5
81
100
AcDbEntity
  8
0
100
AcDbBlockBegin
  2
LAPTOP
 70
     2
 10
0.0
 20
0.0
 30
0.0
  3
LAPTOP
  1

  0
ATTDEF
  5
82
100
AcDbEntity
  8
0
100
AcDbText
 10
15.0
 20
10.0
 30
0.0
 40
0.2
  1

100
AcDbAttributeDefinition
  3
Hersteller
  2
MANUFACTURER
 70
     0
  0
ATTDEF
  5
83
100
AcDbEntity
  8
0
100
AcDbText
 10
15.0
 20
10.0
 30
0.0
 40
0.2
  1

100
AcDbAttributeDefinition
  3
Produktnummer
  2
PRODUCTNUMBER
 70
     0
  0
ATTDEF
  5
84
100
AcDbEntity
  8
0
100
AcDbText
 10
15.0
 20
10.0
 30
0.0
 40
0.2
  1

100
AcDbAttributeDefinition
  3
Teilenummer
  2
PARTNUMBER
 70
     0
  0
ATTDEF
  5
85
100
AcDbEntity
  8
0
100
AcDbText
 10
15.0
 20
10.0
 30
0.0
 40
0.2
  1

100
AcDbAttributeDefinition
  3
Produktbeschreibung
  2
PRODUCTDESCRIPTION
 70
     0
  0
ATTDEF
  5
86
100
AcDbEntity
  8
0
100
AcDbText
 10
15.0
 20
10.0
 30
0.0
 40
0.2
  1

100
AcDbAttributeDefinition
  3
Inventarnummer
  2
ASSETNUMBER
 70
     0
  0
ATTDEF
  5
87
100
AcDbEntity
  8
0
100
AcDbText
 10
15.0
 20
10.0
 30
0.0
 40
0.2
  1

100
AcDbAttributeDefinition
  3
Seriennummer
  2
SERIALNUMBER
 70
     0
  0
ATTDEF
  5
88
100
AcDbEntity
  8
0
100
AcDbText
 10
15.0
 20
10.0
 30
0.0
 40
0.2
  1

100
AcDbAttributeDefinition
  3
Standort
  2
LOCATION
 70
     0
  0
ATTDEF
  5
89
100
AcDbEntity
  8
0
100
AcDbText
 10
15.0
 20
10.0
 30
0.0
 40
0.2
  1

100
AcDbAttributeDefinition
  3
Geb\U+00E4ude
  2
BUILDING
 70
     0
  0
ATTDEF
  5
8A
100
AcDbEntity
  8
0
100
AcDbText
 10
15.0
 20
10.0
 30
0.0
 40
0.2
  1

100
AcDbAttributeDefinition
  3
Raum
  2
ROOM
 70
     0
  0
ATTDEF
  5
8B
100
AcDbEntity
  8
0
100
AcDbText
 10
15.0
 20
10.0
 30
0.0
 40
0.2
  1

100
AcDbAttributeDefinition
  3
Abteilung
  2
DEPARTMENT
 70
     0
  0
LINE
  5
8C
100
AcDbEntity
  8
BEMA\U+00DFUNGEN
  6
CONTINUOUS
100
AcDbLine
 10
10.833333
 20
9.166667
 30
0.0
 11
19.166667
 21
9.166667
 31
0.0
  0
LINE
  5
8D
100
AcDbEntity
  8
BEMA\U+00DFUNGEN
  6
CONTINUOUS
100
AcDbLine
 10
10.0
 20
5.833333
 30
0.0
 11
20.0
 21
5.833333
 31
0.0
  0
LWPOLYLINE
  5
8E
102
{ACAD_REACTORS
330
8F
102
}
100
AcDbEntity
  8
BEMA\U+00DFUNGEN
  6
CONTINUOUS
100
AcDbPolyline
 90
        8
 70
     1
 10
10.833333
 20
9.166667
 10
10.833333
 20
15.0
 10
19.166667
 20
15.0
 10
19.166667
 20
9.166667
 10
20.0
 20
5.833333
 10
20.0
 20
5.0
 10
10.0
 20
5.0
 10
10.0
 20
5.833333
  0
HATCH
  5
8F
100
AcDbEntity
  8
BEMA\U+00DFUNGEN
 62
   253
100
AcDbHatch
 10
0.0
 20
0.0
 30
0.0
210
0.0
220
0.0
230
1.0
  2
SOLID
 70
     1
 71
     1
 91
        1
 92
        3
 72
     0
 73
     1
 93
        8
 10
10.833333333333334
 20
9.1666666666666679
 10
10.833333333333334
 20
15.0
 10
19.166666666666668
 20
15.0
 10
19.166666666666668
 20
9.1666666666666679
 10
20.000000000000004
 20
5.8333333333333348
 10
20.000000000000004
 20
5.0000000000000018
 10
10.000000000000002
 20
5.0000000000000018
 10
10.000000000000002
 20
5.8333333333333348
 97
        1
330
8E
 75
     0
 76
     1
 98
        0
  0
LWPOLYLINE
  5
90
102
{ACAD_REACTORS
330
93
102
}
100
AcDbEntity
  8
BEMA\U+00DFUNGEN
  6
CONTINUOUS
100
AcDbPolyline
 90
        4
 70
     1
 10
10.885417
 20
8.125
 10
10.989584
 20
8.541667
 10
19.010417
 20
8.541667
 10
19.114584
 20
8.125
  0
LWPOLYLINE
  5
91
102
{ACAD_REACTORS
330
93
102
}
100
AcDbEntity
  8
BEMA\U+00DFUNGEN
  6
CONTINUOUS
100
AcDbPolyline
 90
        4
 70
     1
 10
10.416667
 20
6.25
 10
10.833333
 20
7.916667
 10
19.166667
 20
7.916667
 10
19.583333
 20
6.25
  0
LWPOLYLINE
  5
92
102
{ACAD_REACTORS
330
93
102
}
100
AcDbEntity
  8
BEMA\U+00DFUNGEN
  6
CONTINUOUS
100
AcDbPolyline
 90
        2
 70
     1
 10
17.916667
 20
10.416667
 42
-1.0
 10
18.333333
 20
10.416667
 42
-1.0
  0
HATCH
  5
93
100
AcDbEntity
  8
BEMA\U+00DFUNGEN
 62
     7
100
AcDbHatch
 10
0.0
 20
0.0
 30
0.0
210
0.0
220
0.0
230
1.0
  2
SOLID
 70
     1
 71
     1
 91
        2
 92
        3
 72
     1
 73
     1
 93
        2
 10
17.916666666666668
 20
10.416666666666668
 42
-0.9999999999999932
 10
18.333333333333336
 20
10.416666666666668
 42
-1.0000000000000204
 97
        3
330
90
330
91
330
92
 92
        3
 72
     0
 73
     1
 93
        4
 10
16.666666666666671
 20
5.2083333333333348
 10
19.583333333333336
 20
5.2083333333333348
 10
19.583333333333336
 20
5.6250000000000009
 10
16.666666666666671
 20
5.6250000000000009
 97
        1
330
95
 75
     0
 76
     1
 98
        0
  0
LWPOLYLINE
  5
94
100
AcDbEntity
  8
BEMA\U+00DFUNGEN
  6
CONTINUOUS
100
AcDbPolyline
 90
        4
 70
     1
 10
17.708333
 20
10.0
 10
18.541667
 20
10.0
 10
18.541667
 20
10.833333
 10
17.708333
 20
10.833333
  0
LWPOLYLINE
  5
95
102
{ACAD_REACTORS
330
93
102
}
100
AcDbEntity
  8
BEMA\U+00DFUNGEN
  6
CONTINUOUS
100
AcDbPolyline
 90
        4
 70
     1
 10
16.666667
 20
5.208333
 10
19.583333
 20
5.208333
 10
19.583333
 20
5.625
 10
16.666667
 20
5.625
  0
LWPOLYLINE
  5
96
102
{ACAD_REACTORS
330
A5
102
}
100
AcDbEntity
  8
BEMA\U+00DFUNGEN
  6
CONTINUOUS
100
AcDbPolyline
 90
        4
 70
     1
 10
11.666667
 20
10.0
 10
17.5
 20
10.0
 10
17.5
 20
14.166667
 10
11.666667
 20
14.166667
  0
LWPOLYLINE
  5
97
100
AcDbEntity
  8
BEMA\U+00DFUNGEN
  6
CONTINUOUS
100
AcDbPolyline
 90
        4
 70
     1
 10
11.25
 20
9.583333
 10
18.75
 20
9.583333
 10
18.75
 20
14.583333
 10
11.25
 20
14.583333
  0
LWPOLYLINE
  5
98
100
AcDbEntity
  8
BEMA\U+00DFUNGEN
  6
CONTINUOUS
100
AcDbPolyline
 90
        4
 70
     1
 10
17.916667
 20
13.541667
 10
18.541667
 20
13.541667
 10
18.541667
 20
14.166667
 10
17.916667
 20
14.166667
  0
MTEXT
  5
99
100
AcDbEntity
  8
BEMA\U+00DFUNGEN
100
AcDbMText
 10
15.0
 20
2.600483
 30
0.0
 40
4.109294
 41
28.222222
 71
     5
 72
     5
  1
\C7;\fArial|b0|i0|;\H4.1092942200601;Laptop
  0
ENDBLK
  5
9A
100
AcDbEntity
  8
0
100
AcDbBlockEnd
  0
BLOCK
  5
9C
100
AcDbEntity
  8
0
100
AcDbBlockBegin
  2
2D-DOPPEL
 70
     0
 10
0.0
 20
0.0
 30
0.0
  3
2D-DOPPEL
  1

  0
LWPOLYLINE
  5
9D
102
{ACAD_REACTORS
330
A5
102
}
100
AcDbEntity
  8
0
  6
CONTINUOUS
 62
     7
100
AcDbPolyline
 90
       10
 70
     1
 10
40.0
 20
55.0
 10
40.0
 20
60.0
 10
35.0
 20
50.0
 10
40.0
 20
40.0
 10
40.0
 20
45.0
 10
60.0
 20
45.0
 10
60.0
 20
40.0
 10
65.0
 20
50.0
 10
60.0
 20
60.0
 10
60.0
 20
55.0
  0
ENDBLK
  5
9E
100
AcDbEntity
  8
0
100
AcDbBlockEnd
  0
BLOCK
  5
A0
100
AcDbEntity
  8
0
100
AcDbBlockBegin
  2
KREIS
 70
     0
 10
0.0
 20
0.0
 30
0.0
  3
KREIS
  1

  0
LINE
  5
A1
102
{ACAD_REACTORS
330
A5
102
}
100
AcDbEntity
  8
0
  6
CONTINUOUS
 62
     7
100
AcDbLine
 10
17.393399
 20
11.393397
 30
0.0
 11
14.393398
 21
14.393398
 31
0.0
  0
LINE
  5
A2
102
{ACAD_REACTORS
330
A5
102
}
100
AcDbEntity
  8
0
  6
CONTINUOUS
 62
     7
100
AcDbLine
 10
14.393398
 20
14.393398
 30
0.0
 11
35.606602
 21
35.606602
 31
0.0
  0
LINE
  5
A3
102
{ACAD_REACTORS
330
A5
102
}
100
AcDbEntity
  8
0
  6
CONTINUOUS
 62
     7
100
AcDbLine
 10
35.606602
 20
35.606602
 30
0.0
 11
38.606603
 21
32.606601
 31
0.0
  0
ELLIPSE
  5
A4
102
{ACAD_REACTORS
330
A5
102
}
100
AcDbEntity
  8
0
  6
CONTINUOUS
 62
     7
100
AcDbEllipse
 10
27.717659
 20
22.282341
 30
0.0
 11
10.888943174760941
 21
-10.888943174760902
 31
0.0
210
0.0
220
0.0
230
1.0
 40
0.974398
 41
4.7383210749359765
 42
1.5448642322436092
  0
HATCH
  5
A5
100
AcDbEntity
  8
0
 62
   252
100
AcDbHatch
 10
0.0
 20
0.0
 30
0.0
210
0.0
220
0.0
230
1.0
  2
SOLID
 70
     1
 71
     1
 91
        1
 92
        1
 93
        4
 72
     1
 10
17.393399210548534
 20
11.393397353854754
 11
14.39339828220167
 21
14.393398282201606
 72
     1
 10
14.39339828220167
 20
14.393398282201606
 11
35.606601717798064
 21
35.606601717798078
 72
     1
 10
35.606601717798064
 20
35.606601717798078
 11
38.606602646144928
 21
32.606600789451221
 72
     3
 10
27.717659471384025
 20
22.282340528615691
 11
10.610169046785099
 21
10.610169046785137
 40
1.026274
 50
1.4858
 51
178.5142
 73
     0
 97
        6
330
96
330
9D
330
A1
330
A2
330
A3
330
A4
 75
     0
 76
     1
 98
        0
  0
LWPOLYLINE
  5
A6
102
{ACAD_REACTORS
330
AB
102
}
100
AcDbEntity
  8
0
  6
CONTINUOUS
 62
     7
100
AcDbPolyline
 90
        2
 70
     1
 10
10.0
 20
25.0
 42
-1.0
 10
40.0
 20
25.0
 42
-1.0
  0
ENDBLK
  5
A7
100
AcDbEntity
  8
0
100
AcDbBlockEnd
  0
BLOCK
  5
A9
100
AcDbEntity
  8
0
100
AcDbBlockBegin
  2
HORIZONTALER_BALKEN
 70
     0
 10
0.0
 20
0.0
 30
0.0
  3
HORIZONTALER_BALKEN
  1

  0
LWPOLYLINE
  5
AA
102
{ACAD_REACTORS
330
AB
102
}
100
AcDbEntity
  8
0
  6
CONTINUOUS
 62
     7
100
AcDbPolyline
 90
        8
 70
     1
 10
10.0
 20
20.0
 10
40.0
 20
20.0
 10
40.0
 20
30.0
 10
43.0
 20
27.0
 10
43.0
 20
17.0
 10
40.0
 20
20.0
 10
43.0
 20
17.0
 10
13.0
 20
17.0
  0
HATCH
  5
AB
100
AcDbEntity
  8
0
 62
   252
100
AcDbHatch
 10
0.0
 20
0.0
 30
0.0
210
0.0
220
0.0
230
1.0
  2
SOLID
 70
     1
 71
     1
 91
        1
 92
        3
 72
     0
 73
     1
 93
        8
 10
9.9999999999999982
 20
20.0
 10
40.000000000000014
 20
20.0
 10
40.000000000000014
 20
30.0
 10
43.0
 20
27.0
 10
43.0
 20
17.0
 10
40.000000000000014
 20
20.0
 10
43.0
 20
17.0
 10
12.999999999999998
 20
17.0
 97
        2
330
A6
330
AA
 75
     0
 76
     1
 98
        0
  0
LWPOLYLINE
  5
AC
102
{ACAD_REACTORS
330
C8
102
}
100
AcDbEntity
  8
0
  6
CONTINUOUS
 62
     7
100
AcDbPolyline
 90
        4
 70
     1
 10
10.0
 20
20.042333
 10
40.0
 20
20.042333
 10
40.0
 20
29.957667
 10
10.0
 20
29.957667
  0
LWPOLYLINE
  5
AD
100
AcDbEntity
  8
0
  6
CONTINUOUS
 62
     7
100
AcDbPolyline
 90
        3
 70
     0
 10
10.0
 20
20.0
 10
10.0
 20
30.0
 10
40.0
 20
30.0
  0
LWPOLYLINE
  5
AE
100
AcDbEntity
  8
0
  6
CONTINUOUS
 62
     7
100
AcDbPolyline
 90
        3
 70
     0
 10
10.0
 20
20.0
 10
40.0
 20
20.0
 10
40.0
 20
30.0
  0
ENDBLK
  5
AF
100
AcDbEntity
  8
0
100
AcDbBlockEnd
  0
BLOCK
  5
B1
100
AcDbEntity
  8
0
100
AcDbBlockBegin
  2
MODEM-BANK
 70
     0
 10
0.0
 20
0.0
 30
0.0
  3
MODEM-BANK
  1

  0
ENDBLK
  5
B2
100
AcDbEntity
  8
0
100
AcDbBlockEnd
  0
BLOCK
  5
B4
100
AcDbEntity
  8
0
100
AcDbBlockBegin
  2
KABELMODEMS
 70
     0
 10
0.0
 20
0.0
 30
0.0
  3
KABELMODEMS
  1

  0
ENDBLK
  5
B5
100
AcDbEntity
  8
0
100
AcDbBlockEnd
  0
BLOCK
  5
B7
100
AcDbEntity
  8
0
100
AcDbBlockBegin
  2
SENDETURM
 70
     0
 10
0.0
 20
0.0
 30
0.0
  3
SENDETURM
  1

  0
LWPOLYLINE
  5
B8
100
AcDbEntity
  8
BEMA\U+00DFUNGEN
  6
CONTINUOUS
100
AcDbPolyline
 90
        4
 70
     0
 10
24.125
 20
35.590418
 10
22.346026
 20
35.719217
 10
23.278974
 20
36.316525
 10
21.5
 20
36.445325
  0
LWPOLYLINE
  5
B9
100
AcDbEntity
  8
BEMA\U+00DFUNGEN
  6
CONTINUOUS
100
AcDbPolyline
 90
        4
 70
     0
 10
28.5
 20
36.445325
 10
26.706127
 20
35.5
 10
27.231373
 20
36.535743
 10
25.4375
 20
35.590418
  0
LWPOLYLINE
  5
BA
100
AcDbEntity
  8
BEMA\U+00DFUNGEN
  6
CONTINUOUS
100
AcDbPolyline
 90
        4
 70
     0
 10
25.0
 20
36.017871
 10
24.5625
 20
38.155139
 10
25.4375
 20
37.300232
 10
25.0
 20
39.4375
  0
LWPOLYLINE
  5
BB
100
AcDbEntity
  8
0
  6
CONTINUOUS
 62
     7
100
AcDbPolyline
 90
        4
 70
     1
 10
21.5
 20
16.25
 10
25.0
 20
14.5
 10
28.5
 20
16.25
 10
25.0
 20
35.5
  0
LWPOLYLINE
  5
BC
100
AcDbEntity
  8
BEMA\U+00DFUNGEN
  6
CONTINUOUS
100
AcDbPolyline
 90
        3
 70
     0
 10
21.5
 20
16.25
 10
25.0
 20
18.0
 10
28.5
 20
16.25
  0
LWPOLYLINE
  5
BD
100
AcDbEntity
  8
BEMA\U+00DFUNGEN
  6
CONTINUOUS
100
AcDbPolyline
 90
        6
 70
     0
 10
25.0
 20
35.5
 10
25.0
 20
14.5
 10
21.5
 20
16.25
 10
25.0
 20
35.5
 10
28.5
 20
16.25
 10
25.0
 20
14.5
  0
LWPOLYLINE
  5
BE
100
AcDbEntity
  8
BEMA\U+00DFUNGEN
  6
CONTINUOUS
100
AcDbPolyline
 90
        3
 70
     0
 10
24.125
 20
30.6875
 10
25.0
 20
30.25
 10
25.875
 20
30.6875
  0
LWPOLYLINE
  5
BF
100
AcDbEntity
  8
BEMA\U+00DFUNGEN
  6
CONTINUOUS
100
AcDbPolyline
 90
        3
 70
     0
 10
23.833332
 20
29.083332
 10
25.0
 20
28.5
 10
26.175782
 20
29.074218
  0
LWPOLYLINE
  5
C0
100
AcDbEntity
  8
BEMA\U+00DFUNGEN
  6
CONTINUOUS
100
AcDbPolyline
 90
        3
 70
     0
 10
23.541668
 20
27.479168
 10
25.0
 20
26.75
 10
26.421876
 20
27.515626
  0
LWPOLYLINE
  5
C1
100
AcDbEntity
  8
BEMA\U+00DFUNGEN
  6
CONTINUOUS
100
AcDbPolyline
 90
        3
 70
     0
 10
23.25
 20
25.875
 10
25.0
 20
25.0
 10
26.75
 20
25.875
  0
LWPOLYLINE
  5
C2
100
AcDbEntity
  8
BEMA\U+00DFUNGEN
  6
CONTINUOUS
100
AcDbPolyline
 90
        3
 70
     0
 10
22.958332
 20
24.270832
 10
25.0
 20
23.25
 10
27.041668
 20
24.270832
  0
LWPOLYLINE
  5
C3
100
AcDbEntity
  8
BEMA\U+00DFUNGEN
  6
CONTINUOUS
100
AcDbPolyline
 90
        3
 70
     0
 10
22.666668
 20
22.666668
 10
25.0
 20
21.5
 10
27.296876
 20
22.703126
  0
LWPOLYLINE
  5
C4
100
AcDbEntity
  8
BEMA\U+00DFUNGEN
  6
CONTINUOUS
100
AcDbPolyline
 90
        3
 70
     0
 10
22.375
 20
21.0625
 10
25.0
 20
19.75
 10
27.625
 20
21.0625
  0
LWPOLYLINE
  5
C5
100
AcDbEntity
  8
BEMA\U+00DFUNGEN
  6
CONTINUOUS
100
AcDbPolyline
 90
        3
 70
     0
 10
22.083332
 20
19.458332
 10
25.0
 20
18.0
 10
27.925782
 20
19.449218
  0
LWPOLYLINE
  5
C6
100
AcDbEntity
  8
BEMA\U+00DFUNGEN
  6
CONTINUOUS
100
AcDbPolyline
 90
        3
 70
     0
 10
21.791668
 20
17.854168
 10
25.0
 20
16.25
 10
28.171876
 20
17.890626
  0
LWPOLYLINE
  5
C7
102
{ACAD_REACTORS
330
C8
102
}
100
AcDbEntity
  8
BEMA\U+00DFUNGEN
  6
CONTINUOUS
100
AcDbPolyline
 90
        6
 70
     1
 10
24.5625
 20
34.1875
 10
25.0
 20
34.625
 10
25.4375
 20
34.1875
 10
25.65625
 20
32.875
 10
25.0
 20
32.4375
 10
24.34375
 20
32.875
  0
HATCH
  5
C8
100
AcDbEntity
  8
BEMA\U+00DFUNGEN
 62
   250
100
AcDbHatch
 10
0.0
 20
0.0
 30
0.0
210
0.0
220
0.0
230
1.0
  2
SOLID
 70
     1
 71
     1
 91
        1
 92
        3
 72
     0
 73
     1
 93
        6
 10
24.5625
 20
34.187500000000007
 10
25.0
 20
34.625000000000007
 10
25.4375
 20
34.187500000000007
 10
25.656249999999996
 20
32.875
 10
25.0
 20
32.437500000000007
 10
24.34375
 20
32.875
 97
        2
330
AC
330
C7
 75
     0
 76
     1
 98
        0
  0
LWPOLYLINE
  5
C9
100
AcDbEntity
  8
BEMA\U+00DFUNGEN
  6
CONTINUOUS
100
AcDbPolyline
 90
        4
 70
     0
 10
24.125
 20
35.590418
 10
22.346026
 20
35.719217
 10
23.278974
 20
36.316525
 10
21.5
 20
36.445325
  0
LWPOLYLINE
  5
CA
100
AcDbEntity
  8
BEMA\U+00DFUNGEN
  6
CONTINUOUS
100
AcDbPolyline
 90
        4
 70
     0
 10
28.5
 20
36.445325
 10
26.706127
 20
35.5
 10
27.231373
 20
36.535743
 10
25.4375
 20
35.590418
  0
LWPOLYLINE
  5
CB
100
AcDbEntity
  8
BEMA\U+00DFUNGEN
  6
CONTINUOUS
100
AcDbPolyline
 90
        4
 70
     0
 10
25.0
 20
36.017871
 10
24.5625
 20
38.155139
 10
25.4375
 20
37.300232
 10
25.0
 20
39.4375
  0
MTEXT
  5
CC
100
AcDbEntity
  8
BEMA\U+00DFUNGEN
100
AcDbMText
 10
25.0
 20
12.100483
 30
0.0
 40
4.109294
 41
16.266029
 71
     5
 72
     5
  1
\C7;\fArial|b0|i0|;\H4.1092942200601;Send\Petur\Pm
  0
ENDBLK
  5
CD
100
AcDbEntity
  8
0
100
AcDbBlockEnd
  0
BLOCK
  5
CF
100
AcDbEntity
  8
0
100
AcDbBlockBegin
  2
ORT
 70
     0
 10
0.0
 20
0.0
 30
0.0
  3
ORT
  1

  0
ELLIPSE
  5
D0
102
{ACAD_REACTORS
330
D2
102
}
100
AcDbEntity
  8
0
  6
CONTINUOUS
 62
     7
100
AcDbEllipse
 10
25.0
 20
21.953125
 30
0.0
 11
7.4999999999999973
 21
0.0
 31
0.0
210
0.0
220
0.0
230
1.0
 40
0.34375
 41
-0.0000000000000004
 42
3.1415926535898078
  0
ELLIPSE
  5
D1
102
{ACAD_REACTORS
330
D2
102
}
100
AcDbEntity
  8
0
  6
CONTINUOUS
 62
     7
100
AcDbEllipse
 10
25.0
 20
21.953125
 30
0.0
 11
7.4999999999999973
 21
0.0
 31
0.0
210
0.0
220
0.0
230
1.0
 40
0.34375
 41
3.1415926535897927
 42
6.2831853071796004
  0
HATCH
  5
D2
100
AcDbEntity
  8
0
 62
   110
100
AcDbHatch
 10
0.0
 20
0.0
 30
0.0
210
0.0
220
0.0
230
1.0
  2
SOLID
 70
     1
 71
     1
 91
        1
 92
        1
 93
        2
 72
     3
 10
25.0
 20
21.953125000000004
 11
7.4999999999999973
 21
0.0
 40
0.34375
 50
180.0
 51
0.0
 73
     0
 72
     3
 10
25.0
 20
21.953125000000004
 11
7.4999999999999973
 21
0.0
 40
0.34375
 50
360.0
 51
540.0
 73
     0
 97
        2
330
D0
330
D1
 75
     0
 76
     1
 98
        0
  0
ELLIPSE
  5
D3
100
AcDbEntity
  8
0
  6
CONTINUOUS
 62
     7
100
AcDbEllipse
 10
25.0
 20
21.953125
 30
0.0
 11
7.4999999999999973
 21
0.0
 31
0.0
210
0.0
220
0.0
230
1.0
 40
0.34375
 41
-0.0000000000000004
 42
3.1415926535898078
  0
ELLIPSE
  5
D4
100
AcDbEntity
  8
0
  6
CONTINUOUS
 62
     7
100
AcDbEllipse
 10
25.0
 20
21.953125
 30
0.0
 11
7.4999999999999973
 21
0.0
 31
0.0
210
0.0
220
0.0
230
1.0
 40
0.34375
 41
3.1415926535897927
 42
6.2831853071796004
  0
LWPOLYLINE
  5
D5
102
{ACAD_REACTORS
330
D6
102
}
100
AcDbEntity
  8
0
  6
CONTINUOUS
 62
     7
100
AcDbPolyline
 90
        4
 70
     1
 10
26.875
 20
22.890625
 10
26.875
 20
24.296875
 10
29.453125
 20
24.296875
 10
29.453125
 20
22.890625
  0
HATCH
  5
D6
100
AcDbEntity
  8
0
 62
    54
100
AcDbHatch
 10
0.0
 20
0.0
 30
0.0
210
0.0
220
0.0
230
1.0
  2
SOLID
 70
     1
 71
     1
 91
        1
 92
        3
 72
     0
 73
     1
 93
        4
 10
26.874999999999996
 20
22.890625
 10
26.874999999999996
 20
24.296875
 10
29.453124999999996
 20
24.296875000000004
 10
29.453124999999996
 20
22.890625
 97
        1
330
D5
 75
     0
 76
     1
 98
        0
  0
LWPOLYLINE
  5
D7
102
{ACAD_REACTORS
330
D8
102
}
100
AcDbEntity
  8
0
  6
CONTINUOUS
 62
     7
100
AcDbPolyline
 90
        4
 70
     1
 10
29.453125
 20
24.296875
 10
29.453125
 20
22.890625
 10
30.15625
 20
23.59375
 10
30.15625
 20
25.0
  0
HATCH
  5
D8
100
AcDbEntity
  8
0
 62
    54
100
AcDbHatch
 10
0.0
 20
0.0
 30
0.0
210
0.0
220
0.0
230
1.0
  2
SOLID
 70
     1
 71
     1
 91
        1
 92
        3
 72
     0
 73
     1
 93
        4
 10
29.453125
 20
24.296875
 10
29.453125
 20
22.890625
 10
30.15625
 20
23.593750000000004
 10
30.15625
 20
25.0
 97
        1
330
D7
 75
     0
 76
     1
 98
        0
  0
LWPOLYLINE
  5
D9
102
{ACAD_REACTORS
330
DA
102
}
100
AcDbEntity
  8
0
  6
CONTINUOUS
 62
     7
100
AcDbPolyline
 90
        3
 70
     1
 10
29.453125
 20
24.296875
 10
29.6875
 20
25.234375
 10
30.15625
 20
25.0
  0
HATCH
  5
DA
100
AcDbEntity
  8
0
 62
   253
100
AcDbHatch
 10
0.0
 20
0.0
 30
0.0
210
0.0
220
0.0
230
1.0
  2
SOLID
 70
     1
 71
     1
 91
        1
 92
        3
 72
     0
 73
     1
 93
        3
 10
29.453125
 20
24.296875
 10
29.6875
 20
25.234374999999996
 10
30.15625
 20
25.0
 97
        1
330
D9
 75
     0
 76
     1
 98
        0
  0
LWPOLYLINE
  5
DB
102
{ACAD_REACTORS
330
DC
102
}
100
AcDbEntity
  8
0
  6
CONTINUOUS
 62
     7
100
AcDbPolyline
 90
        4
 70
     1
 10
29.6875
 20
25.234375
 10
27.34375
 20
25.234375
 10
26.875
 20
24.296875
 10
29.453125
 20
24.296875
  0
HATCH
  5
DC
100
AcDbEntity
  8
0
 62
   253
100
AcDbHatch
 10
0.0
 20
0.0
 30
0.0
210
0.0
220
0.0
230
1.0
  2
SOLID
 70
     1
 71
     1
 91
        1
 92
        3
 72
     0
 73
     1
 93
        4
 10
29.6875
 20
25.234374999999996
 10
27.343750000000004
 20
25.234374999999996
 10
26.875
 20
24.296875
 10
29.453125
 20
24.296875
 97
        1
330
DB
 75
     0
 76
     1
 98
        0
  0
LWPOLYLINE
  5
DD
102
{ACAD_REACTORS
330
DE
102
}
100
AcDbEntity
  8
0
  6
CONTINUOUS
 62
     7
100
AcDbPolyline
 90
        4
 70
     1
 10
18.90625
 20
22.421875
 10
18.90625
 20
27.109375
 10
22.1875
 20
27.109375
 10
22.1875
 20
22.421875
  0
HATCH
  5
DE
100
AcDbEntity
  8
0
 62
    32
100
AcDbHatch
 10
0.0
 20
0.0
 30
0.0
210
0.0
220
0.0
230
1.0
  2
SOLID
 70
     1
 71
     1
 91
        1
 92
        3
 72
     0
 73
     1
 93
        4
 10
18.906250000000007
 20
22.421875000000004
 10
18.906250000000007
 20
27.109375000000004
 10
22.1875
 20
27.109375000000004
 10
22.1875
 20
22.421875000000004
 97
        1
330
DD
 75
     0
 76
     1
 98
        0
  0
LWPOLYLINE
  5
DF
102
{ACAD_REACTORS
330
E0
102
}
100
AcDbEntity
  8
0
  6
CONTINUOUS
 62
     7
100
AcDbPolyline
 90
        4
 70
     1
 10
18.90625
 20
27.109375
 10
19.609375
 20
27.8125
 10
22.890625
 20
27.8125
 10
22.1875
 20
27.109375
  0
HATCH
  5
E0
100
AcDbEntity
  8
0
 62
   252
100
AcDbHatch
 10
0.0
 20
0.0
 30
0.0
210
0.0
220
0.0
230
1.0
  2
SOLID
 70
     1
 71
     1
 91
        1
 92
        3
 72
     0
 73
     1
 93
        4
 10
18.906250000000007
 20
27.109375000000004
 10
19.609375
 20
27.812499999999996
 10
22.890625
 20
27.812499999999996
 10
22.1875
 20
27.109375000000004
 97
        1
330
DF
 75
     0
 76
     1
 98
        0
  0
LWPOLYLINE
  5
E1
102
{ACAD_REACTORS
330
E2
102
}
100
AcDbEntity
  8
0
  6
CONTINUOUS
 62
     7
100
AcDbPolyline
 90
        4
 70
     1
 10
22.1875
 20
27.109375
 10
22.1875
 20
22.421875
 10
22.890625
 20
23.125
 10
22.890625
 20
27.8125
  0
HATCH
  5
E2
100
AcDbEntity
  8
0
 62
    14
100
AcDbHatch
 10
0.0
 20
0.0
 30
0.0
210
0.0
220
0.0
230
1.0
  2
SOLID
 70
     1
 71
     1
 91
        1
 92
        3
 72
     0
 73
     1
 93
        4
 10
22.1875
 20
27.109375
 10
22.1875
 20
22.421875
 10
22.890625
 20
23.124999999999993
 10
22.890625
 20
27.812499999999979
 97
        1
330
E1
 75
     0
 76
     1
 98
        0
  0
LWPOLYLINE
  5
E3
102
{ACAD_REACTORS
330
E4
102
}
100
AcDbEntity
  8
0
  6
CONTINUOUS
 62
     7
100
AcDbPolyline
 90
        4
 70
     1
 10
22.890625
 20
24.296875
 10
23.59375
 20
25.0
 10
28.75
 20
25.0
 10
28.046875
 20
24.296875
  0
HATCH
  5
E4
100
AcDbEntity
  8
0
 62
   254
100
AcDbHatch
 10
0.0
 20
0.0
 30
0.0
210
0.0
220
0.0
230
1.0
  2
SOLID
 70
     1
 71
     1
 91
        1
 92
        3
 72
     0
 73
     1
 93
        4
 10
22.890625
 20
24.296875
 10
23.593749999999996
 20
24.999999999999996
 10
28.749999999999996
 20
25.0
 10
28.046874999999993
 20
24.296875
 97
        1
330
E3
 75
     0
 76
     1
 98
        0
  0
LWPOLYLINE
  5
E5
102
{ACAD_REACTORS
330
E6
102
}
100
AcDbEntity
  8
0
  6
CONTINUOUS
 62
     7
100
AcDbPolyline
 90
        3
 70
     1
 10
26.640625
 20
27.34375
 10
27.578125
 20
30.625
 10
28.046875
 20
27.34375
  0
HATCH
  5
E6
100
AcDbEntity
  8
0
 62
     7
100
AcDbHatch
 10
0.0
 20
0.0
 30
0.0
210
0.0
220
0.0
230
1.0
  2
SOLID
 70
     1
 71
     1
 91
        1
 92
        3
 72
     0
 73
     1
 93
        3
 10
26.640625
 20
27.343749999999996
 10
27.578125
 20
30.625000000000007
 10
28.046875
 20
27.343749999999996
 97
        1
330
E5
 75
     0
 76
     1
 98
        0
  0
LWPOLYLINE
  5
E7
102
{ACAD_REACTORS
330
E8
102
}
100
AcDbEntity
  8
0
  6
CONTINUOUS
 62
     7
100
AcDbPolyline
 90
        3
 70
     1
 10
28.046875
 20
27.34375
 10
27.578125
 20
30.625
 10
28.75
 20
28.046875
  0
HATCH
  5
E8
100
AcDbEntity
  8
0
 62
   252
100
AcDbHatch
 10
0.0
 20
0.0
 30
0.0
210
0.0
220
0.0
230
1.0
  2
SOLID
 70
     1
 71
     1
 91
        1
 92
        3
 72
     0
 73
     1
 93
        3
 10
28.046874999999993
 20
27.343749999999996
 10
27.578125
 20
30.624999999999982
 10
28.749999999999996
 20
28.046874999999993
 97
        1
330
E7
 75
     0
 76
     1
 98
        0
  0
LWPOLYLINE
  5
E9
102
{ACAD_REACTORS
330
EA
102
}
100
AcDbEntity
  8
0
  6
CONTINUOUS
 62
     7
100
AcDbPolyline
 90
        4
 70
     1
 10
26.640625
 20
20.3125
 10
26.640625
 20
21.71875
 10
29.21875
 20
21.71875
 10
29.21875
 20
20.3125
  0
HATCH
  5
EA
100
AcDbEntity
  8
0
 62
   253
100
AcDbHatch
 10
0.0
 20
0.0
 30
0.0
210
0.0
220
0.0
230
1.0
  2
SOLID
 70
     1
 71
     1
 91
        1
 92
        3
 72
     0
 73
     1
 93
        4
 10
26.640625
 20
20.312500000000004
 10
26.640625
 20
21.71875
 10
29.21875
 20
21.718750000000007
 10
29.21875
 20
20.312500000000004
 97
        1
330
E9
 75
     0
 76
     1
 98
        0
  0
LWPOLYLINE
  5
EB
102
{ACAD_REACTORS
330
EC
102
}
100
AcDbEntity
  8
0
  6
CONTINUOUS
 62
     7
100
AcDbPolyline
 90
        4
 70
     1
 10
29.21875
 20
21.71875
 10
29.21875
 20
20.3125
 10
29.921875
 20
21.015625
 10
29.921875
 20
22.421875
  0
HATCH
  5
EC
100
AcDbEntity
  8
0
 62
   253
100
AcDbHatch
 10
0.0
 20
0.0
 30
0.0
210
0.0
220
0.0
230
1.0
  2
SOLID
 70
     1
 71
     1
 91
        1
 92
        3
 72
     0
 73
     1
 93
        4
 10
29.21875
 20
21.71875
 10
29.21875
 20
20.3125
 10
29.921874999999996
 20
21.015625000000004
 10
29.921875000000004
 20
22.421875
 97
        1
330
EB
 75
     0
 76
     1
 98
        0
  0
LWPOLYLINE
  5
ED
102
{ACAD_REACTORS
330
EE
102
}
100
AcDbEntity
  8
0
  6
CONTINUOUS
 62
     7
100
AcDbPolyline
 90
        3
 70
     1
 10
29.21875
 20
21.71875
 10
29.453125
 20
22.65625
 10
29.921875
 20
22.421875
  0
HATCH
  5
EE
100
AcDbEntity
  8
0
 62
   253
100
AcDbHatch
 10
0.0
 20
0.0
 30
0.0
210
0.0
220
0.0
230
1.0
  2
SOLID
 70
     1
 71
     1
 91
        1
 92
        3
 72
     0
 73
     1
 93
        3
 10
29.21875
 20
21.71875
 10
29.453125
 20
22.656249999999996
 10
29.921874999999996
 20
22.421875
 97
        1
330
ED
 75
     0
 76
     1
 98
        0
  0
LWPOLYLINE
  5
EF
102
{ACAD_REACTORS
330
F0
102
}
100
AcDbEntity
  8
0
  6
CONTINUOUS
 62
     7
100
AcDbPolyline
 90
        4
 70
     1
 10
18.4375
 20
20.78125
 10
18.4375
 20
22.1875
 10
21.015625
 20
22.1875
 10
21.015625
 20
20.78125
  0
HATCH
  5
F0
100
AcDbEntity
  8
0
 62
   253
100
AcDbHatch
 10
0.0
 20
0.0
 30
0.0
210
0.0
220
0.0
230
1.0
  2
SOLID
 70
     1
 71
     1
 91
        1
 92
        3
 72
     0
 73
     1
 93
        4
 10
18.437499999999993
 20
20.781250000000004
 10
18.437499999999993
 20
22.1875
 10
21.015624999999993
 20
22.187500000000004
 10
21.015624999999993
 20
20.781250000000004
 97
        1
330
EF
 75
     0
 76
     1
 98
        0
  0
LWPOLYLINE
  5
F1
102
{ACAD_REACTORS
330
F2
102
}
100
AcDbEntity
  8
0
  6
CONTINUOUS
 62
     7
100
AcDbPolyline
 90
        4
 70
     1
 10
21.015625
 20
22.1875
 10
21.015625
 20
20.78125
 10
21.71875
 20
21.484375
 10
21.71875
 20
22.890625
  0
HATCH
  5
F2
100
AcDbEntity
  8
0
 62
   253
100
AcDbHatch
 10
0.0
 20
0.0
 30
0.0
210
0.0
220
0.0
230
1.0
  2
SOLID
 70
     1
 71
     1
 91
        1
 92
        3
 72
     0
 73
     1
 93
        4
 10
21.015624999999996
 20
22.1875
 10
21.015624999999996
 20
20.78125
 10
21.71875
 20
21.484375000000004
 10
21.71875
 20
22.890625
 97
        1
330
F1
 75
     0
 76
     1
 98
        0
  0
LWPOLYLINE
  5
F3
102
{ACAD_REACTORS
330
F4
102
}
100
AcDbEntity
  8
0
  6
CONTINUOUS
 62
     7
100
AcDbPolyline
 90
        3
 70
     1
 10
21.015625
 20
22.1875
 10
21.25
 20
23.125
 10
21.71875
 20
22.890625
  0
HATCH
  5
F4
100
AcDbEntity
  8
0
 62
   253
100
AcDbHatch
 10
0.0
 20
0.0
 30
0.0
210
0.0
220
0.0
230
1.0
  2
SOLID
 70
     1
 71
     1
 91
        1
 92
        3
 72
     0
 73
     1
 93
        3
 10
21.015624999999993
 20
22.1875
 10
21.249999999999996
 20
23.125
 10
21.718749999999996
 20
22.890625
 97
        1
330
F3
 75
     0
 76
     1
 98
        0
  0
LWPOLYLINE
  5
F5
102
{ACAD_REACTORS
330
F6
102
}
100
AcDbEntity
  8
0
  6
CONTINUOUS
 62
     7
100
AcDbPolyline
 90
        4
 70
     1
 10
21.25
 20
23.125
 10
18.90625
 20
23.125
 10
18.4375
 20
22.1875
 10
21.015625
 20
22.1875
  0
HATCH
  5
F6
100
AcDbEntity
  8
0
 62
   253
100
AcDbHatch
 10
0.0
 20
0.0
 30
0.0
210
0.0
220
0.0
230
1.0
  2
SOLID
 70
     1
 71
     1
 91
        1
 92
        3
 72
     0
 73
     1
 93
        4
 10
21.249999999999996
 20
23.125
 10
18.906249999999996
 20
23.125000000000004
 10
18.437499999999996
 20
22.1875
 10
21.015624999999996
 20
22.1875
 97
        1
330
F5
 75
     0
 76
     1
 98
        0
  0
LWPOLYLINE
  5
F7
102
{ACAD_REACTORS
330
F8
102
}
100
AcDbEntity
  8
0
  6
CONTINUOUS
 62
     7
100
AcDbPolyline
 90
        4
 70
     1
 10
22.421875
 20
19.84375
 10
22.421875
 20
21.25
 10
25.0
 20
21.25
 10
25.0
 20
19.84375
  0
HATCH
  5
F8
100
AcDbEntity
  8
0
 62
   171
100
AcDbHatch
 10
0.0
 20
0.0
 30
0.0
210
0.0
220
0.0
230
1.0
  2
SOLID
 70
     1
 71
     1
 91
        1
 92
        3
 72
     0
 73
     1
 93
        4
 10
22.421875
 20
19.84375
 10
22.421875
 20
21.25
 10
25.0
 20
21.250000000000007
 10
25.0
 20
19.84375
 97
        1
330
F7
 75
     0
 76
     1
 98
        0
  0
LWPOLYLINE
  5
F9
102
{ACAD_REACTORS
330
FA
102
}
100
AcDbEntity
  8
0
  6
CONTINUOUS
 62
     7
100
AcDbPolyline
 90
        4
 70
     1
 10
25.0
 20
21.25
 10
25.0
 20
19.84375
 10
25.703125
 20
20.546875
 10
25.703125
 20
21.953125
  0
HATCH
  5
FA
100
AcDbEntity
  8
0
 62
   171
100
AcDbHatch
 10
0.0
 20
0.0
 30
0.0
210
0.0
220
0.0
230
1.0
  2
SOLID
 70
     1
 71
     1
 91
        1
 92
        3
 72
     0
 73
     1
 93
        4
 10
25.0
 20
21.25
 10
25.0
 20
19.84375
 10
25.703125000000004
 20
20.546875000000004
 10
25.703125000000004
 20
21.953125
 97
        1
330
F9
 75
     0
 76
     1
 98
        0
  0
LWPOLYLINE
  5
FB
102
{ACAD_REACTORS
330
FC
102
}
100
AcDbEntity
  8
0
  6
CONTINUOUS
 62
     7
100
AcDbPolyline
 90
        8
 70
     1
 10
28.046875
 20
24.068099
 10
28.046875
 20
24.296875
 10
28.046875
 20
27.34375
 10
26.640625
 20
27.34375
 10
26.640625
 20
24.296875
 10
22.890625
 20
24.296875
 10
22.890625
 20
21.953125
 10
28.046875
 20
21.953125
  0
HATCH
  5
FC
100
AcDbEntity
  8
0
 62
   253
100
AcDbHatch
 10
0.0
 20
0.0
 30
0.0
210
0.0
220
0.0
230
1.0
  2
SOLID
 70
     1
 71
     1
 91
        1
 92
        3
 72
     0
 73
     1
 93
        8
 10
28.046874999999993
 20
24.068099402730414
 10
28.046874999999993
 20
24.296875
 10
28.046874999999993
 20
27.343750000000004
 10
26.640625
 20
27.343750000000004
 10
26.640625
 20
24.296875
 10
22.890625
 20
24.296875
 10
22.890625
 20
21.953125
 10
28.046874999999993
 20
21.953125
 97
        1
330
FB
 75
     0
 76
     1
 98
        0
  0
LWPOLYLINE
  5
FD
102
{ACAD_REACTORS
330
FE
102
}
100
AcDbEntity
  8
0
  6
CONTINUOUS
 62
     7
100
AcDbPolyline
 90
        4
 70
     1
 10
25.234375
 20
22.1875
 10
22.890625
 20
22.1875
 10
22.421875
 20
21.25
 10
25.0
 20
21.25
  0
HATCH
  5
FE
100
AcDbEntity
  8
0
 62
   253
100
AcDbHatch
 10
0.0
 20
0.0
 30
0.0
210
0.0
220
0.0
230
1.0
  2
SOLID
 70
     1
 71
     1
 91
        1
 92
        3
 72
     0
 73
     1
 93
        4
 10
25.234374999999996
 20
22.1875
 10
22.890624999999996
 20
22.1875
 10
22.421875
 20
21.25
 10
25.0
 20
21.25
 97
        1
330
FD
 75
     0
 76
     1
 98
        0
  0
LWPOLYLINE
  5
FF
102
{ACAD_REACTORS
330
100
102
}
100
AcDbEntity
  8
0
  6
CONTINUOUS
 62
     7
100
AcDbPolyline
 90
        3
 70
     1
 10
25.0
 20
21.25
 10
25.234375
 20
22.1875
 10
25.703125
 20
21.953125
  0
HATCH
  5
100
100
AcDbEntity
  8
0
 62
   253
100
AcDbHatch
 10
0.0
 20
0.0
 30
0.0
210
0.0
220
0.0
230
1.0
  2
SOLID
 70
     1
 71
     1
 91
        1
 92
        3
 72
     0
 73
     1
 93
        3
 10
24.999999999999993
 20
21.25
 10
25.234374999999996
 20
22.1875
 10
25.703124999999996
 20
21.953125
 97
        1
330
FF
 75
     0
 76
     1
 98
        0
  0
LWPOLYLINE
  5
101
102
{ACAD_REACTORS
330
102
102
}
100
AcDbEntity
  8
0
  6
CONTINUOUS
 62
     7
100
AcDbPolyline
 90
        6
 70
     1
 10
28.75
 20
25.0
 10
28.75
 20
28.046875
 10
28.046875
 20
27.34375
 10
28.046875
 20
24.296875
 10
28.046875
 20
21.953125
 10
28.75
 20
22.65625
  0
HATCH
  5
102
100
AcDbEntity
  8
0
 62
   252
100
AcDbHatch
 10
0.0
 20
0.0
 30
0.0
210
0.0
220
0.0
230
1.0
  2
SOLID
 70
     1
 71
     1
 91
        1
 92
        3
 72
     0
 73
     1
 93
        6
 10
28.749999999999996
 20
25.0
 10
28.749999999999996
 20
28.046874999999993
 10
28.046875
 20
27.343750000000004
 10
28.046875
 20
24.296875
 10
28.046875
 20
21.953125
 10
28.749999999999996
 20
22.656249999999996
 97
        1
330
101
 75
     0
 76
     1
 98
        0
  0
LWPOLYLINE
  5
103
102
{ACAD_REACTORS
330
104
102
}
100
AcDbEntity
  8
0
  6
CONTINUOUS
 62
     7
100
AcDbPolyline
 90
        4
 70
     1
 10
29.453125
 20
22.65625
 10
27.109375
 20
22.65625
 10
26.640625
 20
21.71875
 10
29.21875
 20
21.71875
  0
HATCH
  5
104
100
AcDbEntity
  8
0
 62
   253
100
AcDbHatch
 10
0.0
 20
0.0
 30
0.0
210
0.0
220
0.0
230
1.0
  2
SOLID
 70
     1
 71
     1
 91
        1
 92
        3
 72
     0
 73
     1
 93
        4
 10
29.453125
 20
22.656249999999996
 10
27.109375
 20
22.65625
 10
26.640625
 20
21.71875
 10
29.21875
 20
21.71875
 97
        1
330
103
 75
     0
 76
     1
 98
        0
  0
LWPOLYLINE
  5
105
100
AcDbEntity
  8
0
  6
CONTINUOUS
 62
     7
100
AcDbPolyline
 90
       15
 70
     0
 10
18.90625
 20
23.359375
 10
18.90625
 20
27.109375
 10
19.609375
 20
27.8125
 10
22.890625
 20
27.8125
 10
22.890625
 20
24.53125
 10
23.125
 20
24.53125
 10
23.59375
 20
25.0
 10
26.640625
 20
25.0
 10
26.640625
 20
27.34375
 10
27.578125
 20
30.625
 10
28.75
 20
28.046875
 10
28.75
 20
25.234375
 10
29.6875
 20
25.234375
 10
30.15625
 20
25.0
 10
30.15625
 20
23.828125
  0
MTEXT
  5
106
100
AcDbEntity
  8
0
100
AcDbMText
 10
25.0
 20
16.975483
 30
0.0
 40
4.109294
 41
6.380101
 71
     5
 72
     5
  1
\C7;\fArial|b0|i0|;\H4.1092942200601;O\Prt
  0
ENDBLK
  5
107
100
AcDbEntity
  8
0
100
AcDbBlockEnd
  0
BLOCK
  5
109
100
AcDbEntity
  8
0
100
AcDbBlockBegin
  2
FELD
 70
     0
 10
0.0
 20
0.0
 30
0.0
  3
FELD
  1

  0
LWPOLYLINE
  5
10A
100
AcDbEntity
  8
0
  6
CONTINUOUS
 62
     7
100
AcDbPolyline
 90
        4
 70
     1
 10
30.0
 20
35.0
 10
70.0
 20
35.0
 10
70.0
 20
65.0
 10
30.0
 20
65.0
  0
ENDBLK
  5
10B
100
AcDbEntity
  8
0
100
AcDbBlockEnd
  0
BLOCK
  5
10D
100
AcDbEntity
  8
0
100
AcDbBlockBegin
  2
MASTER_17
 70
     0
 10
0.0
 20
0.0
 30
0.0
  3
MASTER_17
  1

  0
LWPOLYLINE
  5
10E
100
AcDbEntity
  8
0
  6
CONTINUOUS
 62
     7
100
AcDbPolyline
 90
        3
 70
     1
 10
0.0
 20
3.0
 10
2.4
 20
3.0
 10
2.4
 20
0.060612
 42
2.805884
  0
CIRCLE
  5
10F
100
AcDbEntity
  8
0
  6
CONTINUOUS
 62
     7
100
AcDbCircle
 10
3.0
 20
3.0
 30
0.0
 40
2.85
  0
CIRCLE
  5
110
100
AcDbEntity
  8
0
  6
CONTINUOUS
 62
     7
100
AcDbCircle
 10
3.0
 20
3.0
 30
0.0
 40
2.4
  0
ENDBLK
  5
111
100
AcDbEntity
  8
0
100
AcDbBlockEnd
  0
BLOCK
  5
113
100
AcDbEntity
  8
0
100
AcDbBlockBegin
  2
MASTER_18
 70
     0
 10
0.0
 20
0.0
 30
0.0
  3
MASTER_18
  1

  0
LWPOLYLINE
  5
114
100
AcDbEntity
  8
BEMA\U+00DFUNGEN
  6
CONTINUOUS
100
AcDbPolyline
 90
        2
 70
     1
 10
-11.533333
 20
0.0
 10
10.583333
 20
0.0
  0
LWPOLYLINE
  5
115
100
AcDbEntity
  8
BEMA\U+00DFUNGEN
  6
CONTINUOUS
100
AcDbPolyline
 90
        2
 70
     1
 10
-11.533333
 20
27.0
 10
10.583333
 20
27.0
  0
LINE
  5
116
100
AcDbEntity
  8
BEMA\U+00DFUNGEN
  6
CONTINUOUS
100
AcDbLine
 10
-7.3
 20
-8.46328
 30
0.0
 11
-7.3
 21
0.0
 31
0.0
  0
LINE
  5
117
100
AcDbEntity
  8
BEMA\U+00DFUNGEN
  6
CONTINUOUS
100
AcDbLine
 10
-7.3
 20
35.46328
 30
0.0
 11
-7.3
 21
27.0
 31
0.0
  0
MTEXT
  5
118
100
AcDbEntity
  8
BEMA\U+00DFUNGEN
100
AcDbMText
 10
-10.899564
 20
13.0
 30
0.0
 40
3.081935
 41
19.353684
 71
     5
 72
     5
  1
\C7;\fArial|b0|i0|;\H3.0819353945553;27,00mm
 11
0.0
 21
1.0
 31
0.0
  0
ENDBLK
  5
119
100
AcDbEntity
  8
0
100
AcDbBlockEnd
  0
BLOCK
  5
11B
100
AcDbEntity
  8
0
100
AcDbBlockBegin
  2
MASTER_19
 70
     2
 10
0.0
 20
0.0
 30
0.0
  3
MASTER_19
  1

  0
LWPOLYLINE
  5
11C
100
AcDbEntity
  8
0
  6
CONTINUOUS
 62
     7
100
AcDbPolyline
 90
        4
 70
     1
 10
0.0
 20
0.0
 10
40.0
 20
0.0
 10
40.0
 20
30.0
 10
0.0
 20
30.0
  0
ENDBLK
  5
11D
100
AcDbEntity
  8
0
100
AcDbBlockEnd
  0
BLOCK
  5
11F
100
AcDbEntity
  8
0
100
AcDbBlockBegin
  2
MASTER_20
 70
     0
 10
0.0
 20
0.0
 30
0.0
  3
MASTER_20
  1

  0
LWPOLYLINE
  5
120
100
AcDbEntity
  8
0
  6
CONTINUOUS
 62
     7
100
AcDbPolyline
 90
        2
 70
     1
 10
0.0
 20
20.0
 42
-1.0
 10
40.0
 20
20.0
 42
-1.0
  0
ENDBLK
  5
121
100
AcDbEntity
  8
0
100
AcDbBlockEnd
  0
BLOCK
  5
123
100
AcDbEntity
  8
0
100
AcDbBlockBegin
  2
MA\U+00DF
 70
     0
 10
0.0
 20
0.0
 30
0.0
  3
MA\U+00DF
  1

  0
LWPOLYLINE
  5
124
100
AcDbEntity
  8
BEMA\U+00DFUNGEN
  6
CONTINUOUS
100
AcDbPolyline
 90
        2
 70
     1
 10
14.809829
 20
-10.380342
 10
19.526699
 20
-0.946602
  0
LWPOLYLINE
  5
125
100
AcDbEntity
  8
BEMA\U+00DFUNGEN
  6
CONTINUOUS
100
AcDbPolyline
 90
        2
 70
     1
 10
-5.190171
 20
-0.380342
 10
-0.473301
 20
9.053398
  0
LINE
  5
126
100
AcDbEntity
  8
BEMA\U+00DFUNGEN
  6
CONTINUOUS
100
AcDbLine
 10
5.756431
 20
-3.487138
 30
0.0
 11
15.756431
 21
-8.487138
 31
0.0
  0
LINE
  5
127
100
AcDbEntity
  8
BEMA\U+00DFUNGEN
  6
CONTINUOUS
100
AcDbLine
 10
5.756431
 20
-3.487138
 30
0.0
 11
-4.243569
 21
1.512862
 31
0.0
  0
MTEXT
  5
128
100
AcDbEntity
  8
BEMA\U+00DFUNGEN
100
AcDbMText
 10
9.666084
 20
-4.001164
 30
0.0
 40
3.081935
 41
9.676842
 71
     5
 72
     5
  1
\C7;\fArial|b0|i0|;\H3.0819353945553;22,3\P6mm
 11
0.894427
 21
-0.447214
 31
0.0
  0
ENDBLK
  5
129
100
AcDbEntity
  8
0
100
AcDbBlockEnd
  0
BLOCK
  5
12B
100
AcDbEntity
  8
0
100
AcDbBlockBegin
  2
M-LINIE
 70
     2
 10
0.0
 20
0.0
 30
0.0
  3
M-LINIE
  1

  0
LINE
  5
12D
100
AcDbEntity
  8
0
  6
DASHDOT
 62
     7
100
AcDbLine
 10
0.0
 20
5.0
 30
0.0
 11
8.0
 21
0.0
 31
0.0
  0
ENDBLK
  5
12E
100
AcDbEntity
  8
0
100
AcDbBlockEnd
  0
BLOCK
  5
130
100
AcDbEntity
  8
0
100
AcDbBlockBegin
  2
BOHRKREIS
 70
     0
 10
0.0
 20
0.0
 30
0.0
  3
BOHRKREIS
  1

  0
LWPOLYLINE
  5
131
100
AcDbEntity
  8
0
  6
CONTINUOUS
 62
     7
100
AcDbPolyline
 90
        2
 70
     1
 10
0.0
 20
2.25
 42
-1.0
 10
4.5
 20
2.25
 42
-1.0
  0
LWPOLYLINE
  5
132
100
AcDbEntity
  8
0
  6
CONTINUOUS
 62
     7
100
AcDbPolyline
 90
        2
 70
     1
 10
1.75
 20
2.25
 42
-1.0
 10
2.75
 20
2.25
 42
-1.0
  0
ENDBLK
  5
133
100
AcDbEntity
  8
0
100
AcDbBlockEnd
  0
BLOCK
  5
135
100
AcDbEntity
  8
0
100
AcDbBlockBegin
  2
MATRIX
 70
     0
 10
0.0
 20
0.0
 30
0.0
  3
MATRIX
  1

  0
LWPOLYLINE
  5
136
100
AcDbEntity
  8
0
  6
CONTINUOUS
 62
     6
100
AcDbPolyline
 90
        4
 70
     1
 10
5.0
 20
5.0
 10
292.0
 20
5.0
 10
292.0
 20
215.396463
 10
5.0
 20
215.396463
  0
LINE
  5
137
100
AcDbEntity
  8
0
  6
CONTINUOUS
 62
     7
100
AcDbLine
 10
44.625
 20
210.396463
 30
0.0
 11
44.625
 21
215.396463
 31
0.0
  0
LINE
  5
138
100
AcDbEntity
  8
0
  6
CONTINUOUS
 62
     7
100
AcDbLine
 10
79.25
 20
210.396463
 30
0.0
 11
79.25
 21
215.396463
 31
0.0
  0
LINE
  5
139
100
AcDbEntity
  8
0
  6
CONTINUOUS
 62
     7
100
AcDbLine
 10
113.875
 20
210.396463
 30
0.0
 11
113.875
 21
215.396463
 31
0.0
  0
LINE
  5
13A
100
AcDbEntity
  8
0
  6
CONTINUOUS
 62
     7
100
AcDbLine
 10
148.5
 20
210.396463
 30
0.0
 11
148.5
 21
215.396463
 31
0.0
  0
LINE
  5
13B
100
AcDbEntity
  8
0
  6
CONTINUOUS
 62
     7
100
AcDbLine
 10
183.125
 20
210.396463
 30
0.0
 11
183.125
 21
215.396463
 31
0.0
  0
LINE
  5
13C
100
AcDbEntity
  8
0
  6
CONTINUOUS
 62
     7
100
AcDbLine
 10
217.75
 20
210.396463
 30
0.0
 11
217.75
 21
215.396463
 31
0.0
  0
LINE
  5
13D
100
AcDbEntity
  8
0
  6
CONTINUOUS
 62
     7
100
AcDbLine
 10
252.375
 20
210.396463
 30
0.0
 11
252.375
 21
215.396463
 31
0.0
  0
LINE
  5
13E
100
AcDbEntity
  8
0
  6
CONTINUOUS
 62
     7
100
AcDbLine
 10
44.625
 20
10.0
 30
0.0
 11
44.625
 21
5.0
 31
0.0
  0
LINE
  5
13F
100
AcDbEntity
  8
0
  6
CONTINUOUS
 62
     7
100
AcDbLine
 10
79.25
 20
10.0
 30
0.0
 11
79.25
 21
5.0
 31
0.0
  0
LINE
  5
140
100
AcDbEntity
  8
0
  6
CONTINUOUS
 62
     7
100
AcDbLine
 10
113.875
 20
10.0
 30
0.0
 11
113.875
 21
5.0
 31
0.0
  0
LINE
  5
141
100
AcDbEntity
  8
0
  6
CONTINUOUS
 62
     7
100
AcDbLine
 10
148.5
 20
10.0
 30
0.0
 11
148.5
 21
5.0
 31
0.0
  0
LINE
  5
142
100
AcDbEntity
  8
0
  6
CONTINUOUS
 62
     7
100
AcDbLine
 10
183.125
 20
10.0
 30
0.0
 11
183.125
 21
5.0
 31
0.0
  0
LINE
  5
143
100
AcDbEntity
  8
0
  6
CONTINUOUS
 62
     7
100
AcDbLine
 10
217.75
 20
10.0
 30
0.0
 11
217.75
 21
5.0
 31
0.0
  0
LINE
  5
144
100
AcDbEntity
  8
0
  6
CONTINUOUS
 62
     7
100
AcDbLine
 10
252.375
 20
10.0
 30
0.0
 11
252.375
 21
5.0
 31
0.0
  0
LINE
  5
145
100
AcDbEntity
  8
0
  6
CONTINUOUS
 62
     7
100
AcDbLine
 10
10.0
 20
185.346905
 30
0.0
 11
5.0
 21
185.346905
 31
0.0
  0
LINE
  5
146
100
AcDbEntity
  8
0
  6
CONTINUOUS
 62
     7
100
AcDbLine
 10
10.0
 20
160.297347
 30
0.0
 11
5.0
 21
160.297347
 31
0.0
  0
LINE
  5
147
100
AcDbEntity
  8
0
  6
CONTINUOUS
 62
     7
100
AcDbLine
 10
10.0
 20
135.247789
 30
0.0
 11
5.0
 21
135.247789
 31
0.0
  0
LINE
  5
148
100
AcDbEntity
  8
0
  6
CONTINUOUS
 62
     7
100
AcDbLine
 10
10.0
 20
110.198231
 30
0.0
 11
5.0
 21
110.198231
 31
0.0
  0
LINE
  5
149
100
AcDbEntity
  8
0
  6
CONTINUOUS
 62
     7
100
AcDbLine
 10
10.0
 20
85.148674
 30
0.0
 11
5.0
 21
85.148674
 31
0.0
  0
LINE
  5
14A
100
AcDbEntity
  8
0
  6
CONTINUOUS
 62
     7
100
AcDbLine
 10
10.0
 20
60.099116
 30
0.0
 11
5.0
 21
60.099116
 31
0.0
  0
LINE
  5
14B
100
AcDbEntity
  8
0
  6
CONTINUOUS
 62
     7
100
AcDbLine
 10
10.0
 20
35.049558
 30
0.0
 11
5.0
 21
35.049558
 31
0.0
  0
LINE
  5
14C
100
AcDbEntity
  8
0
  6
CONTINUOUS
 62
     7
100
AcDbLine
 10
287.0
 20
185.346905
 30
0.0
 11
292.0
 21
185.346905
 31
0.0
  0
LINE
  5
14D
100
AcDbEntity
  8
0
  6
CONTINUOUS
 62
     7
100
AcDbLine
 10
287.0
 20
160.297347
 30
0.0
 11
292.0
 21
160.297347
 31
0.0
  0
LINE
  5
14E
100
AcDbEntity
  8
0
  6
CONTINUOUS
 62
     7
100
AcDbLine
 10
287.0
 20
135.247789
 30
0.0
 11
292.0
 21
135.247789
 31
0.0
  0
LINE
  5
14F
100
AcDbEntity
  8
0
  6
CONTINUOUS
 62
     7
100
AcDbLine
 10
287.0
 20
110.198231
 30
0.0
 11
292.0
 21
110.198231
 31
0.0
  0
LINE
  5
150
100
AcDbEntity
  8
0
  6
CONTINUOUS
 62
     7
100
AcDbLine
 10
287.0
 20
85.148674
 30
0.0
 11
292.0
 21
85.148674
 31
0.0
  0
LINE
  5
151
100
AcDbEntity
  8
0
  6
CONTINUOUS
 62
     7
100
AcDbLine
 10
287.0
 20
60.099116
 30
0.0
 11
292.0
 21
60.099116
 31
0.0
  0
LINE
  5
152
100
AcDbEntity
  8
0
  6
CONTINUOUS
 62
     7
100
AcDbLine
 10
287.0
 20
35.049558
 30
0.0
 11
292.0
 21
35.049558
 31
0.0
  0
LWPOLYLINE
  5
153
100
AcDbEntity
  8
0
  6
CONTINUOUS
 62
     7
100
AcDbPolyline
 90
        4
 70
     1
 10
10.0
 20
210.396463
 10
10.0
 20
10.0
 10
287.0
 20
10.0
 10
287.0
 20
210.396463
  0
MTEXT
  5
154
100
AcDbEntity
  8
0
100
AcDbMText
 10
289.5
 20
213.966627
 30
0.0
 40
6.164012
 41
5.0
 71
     2
 72
     5
  1
\C7;\fArial|b0|i0|;\H6.1640118710697;H\PG\PF\PE\PD\PC\PB\PA\P
  0
MTEXT
  5
155
100
AcDbEntity
  8
0
100
AcDbMText
 10
5.0
 20
7.5
 30
0.0
 40
6.164012
 41
287.0
 71
     4
 72
     5
  1
\C7;\fArial|b0|i0|;\H6.1640118710697;87654\P321
  0
MTEXT
  5
156
100
AcDbEntity
  8
0
100
AcDbMText
 10
7.5
 20
213.966627
 30
0.0
 40
6.164012
 41
5.0
 71
     2
 72
     5
  1
\C7;\fArial|b0|i0|;\H6.1640118710697;H\PG\PF\PE\PD\PC\PB\PA\P
  0
MTEXT
  5
157
100
AcDbEntity
  8
0
100
AcDbMText
 10
5.0
 20
212.896463
 30
0.0
 40
6.164012
 41
287.0
 71
     4
 72
     5
  1
\C7;\fArial|b0|i0|;\H6.1640118710697;87654\P321
  0
ENDBLK
  5
158
100
AcDbEntity
  8
0
100
AcDbBlockEnd
  0
BLOCK
  5
15A
100
AcDbEntity
  8
0
100
AcDbBlockBegin
  2
BOHRUNG2
 70
     0
 10
0.0
 20
0.0
 30
0.0
  3
BOHRUNG2
  1

  0
LWPOLYLINE
  5
15B
100
AcDbEntity
  8
BEMA\U+00DFUNGEN
  6
CONTINUOUS
100
AcDbPolyline
 90
        2
 70
     1
 10
8.0
 20
-3.160887
 10
8.0
 20
10.583333
  0
LWPOLYLINE
  5
15C
100
AcDbEntity
  8
BEMA\U+00DFUNGEN
  6
CONTINUOUS
100
AcDbPolyline
 90
        2
 70
     1
 10
0.0
 20
-3.160887
 10
0.0
 20
10.583333
  0
LINE
  5
15D
100
AcDbEntity
  8
BEMA\U+00DFUNGEN
  6
CONTINUOUS
100
AcDbLine
 10
16.46328
 20
1.072446
 30
0.0
 11
8.0
 21
1.072446
 31
0.0
  0
LINE
  5
15E
100
AcDbEntity
  8
BEMA\U+00DFUNGEN
  6
CONTINUOUS
100
AcDbLine
 10
-8.46328
 20
1.072446
 30
0.0
 11
0.0
 21
1.072446
 31
0.0
  0
MTEXT
  5
15F
100
AcDbEntity
  8
BEMA\U+00DFUNGEN
100
AcDbMText
 10
4.509091
 20
6.172011
 30
0.0
 40
3.081935
 41
21.468284
 71
     5
 72
     5
  1
\C7;\fArial|b0|i0|;\H3.0819353945553;\U+00D8 8,00mm
  0
ENDBLK
  5
160
100
AcDbEntity
  8
0
100
AcDbBlockEnd
  0
BLOCK
  5
162
100
AcDbEntity
  8
0
100
AcDbBlockBegin
  2
TRENNER
 70
     2
 10
0.0
 20
0.0
 30
0.0
  3
TRENNER
  1

  0
LWPOLYLINE
  5
163
100
AcDbEntity
  8
0
  6
CONTINUOUS
 62
     7
100
AcDbPolyline
 90
        6
 70
     0
 10
10.0
 20
82.0
 10
2.184652
 20
58.553956
 42
0.267288
 10
4.570797
 20
46.819763
 10
9.978723
 20
40.69078
 42
-0.289686
 10
12.01041
 20
28.024289
 10
0.0
 20
0.0
  0
ENDBLK
  5
164
100
AcDbEntity
  8
0
100
AcDbBlockEnd
  0
BLOCK
  5
166
100
AcDbEntity
  8
0
100
AcDbBlockBegin
  2
KREIS_27
 70
     0
 10
0.0
 20
0.0
 30
0.0
  3
KREIS_27
  1

  0
LWPOLYLINE
  5
167
100
AcDbEntity
  8
BEMA\U+00DFUNGEN
  6
CONTINUOUS
100
AcDbPolyline
 90
        2
 70
     1
 10
-1.0
 20
0.0
 10
1.0
 20
0.0
  0
LWPOLYLINE
  5
168
100
AcDbEntity
  8
BEMA\U+00DFUNGEN
  6
CONTINUOUS
100
AcDbPolyline
 90
        2
 70
     1
 10
0.0
 20
-1.0
 10
0.0
 20
1.0
  0
LWPOLYLINE
  5
169
100
AcDbEntity
  8
BEMA\U+00DFUNGEN
  6
CONTINUOUS
100
AcDbPolyline
 90
        3
 70
     0
 10
25.0
 20
20.0
 10
20.0
 20
20.0
 10
3.535534
 20
3.535534
  0
MTEXT
  5
16A
100
AcDbEntity
  8
BEMA\U+00DFUNGEN
100
AcDbMText
 10
32.504634
 20
20.0
 30
0.0
 40
4.109294
 41
15.009269
 71
     5
 72
     5
  1
\C7;\fArial|b0|i0|;\H4.1092942200601;\U+00D810,\P00m\Pm
  0
ENDBLK
  5
16B
100
AcDbEntity
  8
0
100
AcDbBlockEnd
  0
BLOCK
  5
16D
100
AcDbEntity
  8
0
100
AcDbBlockBegin
  2
BOHRUNG
 70
     2
 10
0.0
 20
0.0
 30
0.0
  3
BOHRUNG
  1

  0
LWPOLYLINE
  5
16E
100
AcDbEntity
  8
BEMA\U+00DFUNGEN
  6
CONTINUOUS
100
AcDbPolyline
 90
        3
 70
     0
 10
33.0
 20
0.0
 10
17.595238
 20
0.0
 10
0.0
 20
33.0
  0
MTEXT
  5
16F
100
AcDbEntity
  8
BEMA\U+00DFUNGEN
100
AcDbMText
 10
-19.192734
 20
0.0
 30
0.0
 40
3.081935
 41
38.385469
 71
     5
 72
     5
  1
\C7;\fArial|b0|i0|;\H3.0819353945553;\U+00D8 6 (Bohrungen \Pf\U+00FCr \PGeh\U+00E4useflansch)
  0
ENDBLK
  5
170
100
AcDbEntity
  8
0
100
AcDbBlockEnd
  0
BLOCK
  5
172
100
AcDbEntity
  8
0
100
AcDbBlockBegin
  2
TEXT
 70
     0
 10
0.0
 20
0.0
 30
0.0
  3
TEXT
  1

  0
LWPOLYLINE
  5
173
100
AcDbEntity
  8
0
  6
CONTINUOUS
 62
     7
100
AcDbPolyline
 90
        4
 70
     1
 10
0.0
 20
0.0
 10
43.5
 20
0.0
 10
43.5
 20
25.0
 10
0.0
 20
25.0
  0
LINE
  5
174
100
AcDbEntity
  8
0
  6
CONTINUOUS
 62
     7
100
AcDbLine
 10
0.0
 20
20.0
 30
0.0
 11
43.5
 21
20.0
 31
0.0
  0
LINE
  5
175
100
AcDbEntity
  8
0
  6
CONTINUOUS
 62
     7
100
AcDbLine
 10
0.0
 20
15.0
 30
0.0
 11
43.5
 21
15.0
 31
0.0
  0
LINE
  5
176
100
AcDbEntity
  8
0
  6
CONTINUOUS
 62
     7
100
AcDbLine
 10
0.0
 20
10.0
 30
0.0
 11
43.5
 21
10.0
 31
0.0
  0
LINE
  5
177
100
AcDbEntity
  8
0
  6
CONTINUOUS
 62
     7
100
AcDbLine
 10
0.0
 20
5.0
 30
0.0
 11
43.5
 21
5.0
 31
0.0
  0
MTEXT
  5
178
100
AcDbEntity
  8
0
100
AcDbMText
 10
1.411111
 20
24.294444
 30
0.0
 40
4.109294
 41
43.5
 71
     1
 72
     5
  1
\C7;\fArial|b0|i0|;\H4.1092942200601;W\U+00E4hlen und \PText eingeben. \PZeilenabstand \Pmit \PKontrollpunkt \Panpassen.
  0
ENDBLK
  5
179
100
AcDbEntity
  8
0
100
AcDbBlockEnd
  0
BLOCK
  5
17B
100
AcDbEntity
  8
0
100
AcDbBlockBegin
  2
MASTER_30
 70
     0
 10
0.0
 20
0.0
 30
0.0
  3
MASTER_30
  1

  0
LWPOLYLINE
  5
17C
100
AcDbEntity
  8
0
  6
CONTINUOUS
 62
     7
100
AcDbPolyline
 90
        4
 70
     1
 10
0.0
 20
0.0
 10
40.0
 20
0.0
 10
40.0
 20
30.0
 10
0.0
 20
30.0
  0
ENDBLK
  5
17D
100
AcDbEntity
  8
0
100
AcDbBlockEnd
  0
BLOCK
  5
17F
100
AcDbEntity
  8
0
100
AcDbBlockBegin
  2
MASTER_31
 70
     0
 10
0.0
 20
0.0
 30
0.0
  3
MASTER_31
  1

  0
LWPOLYLINE
  5
180
100
AcDbEntity
  8
0
  6
CONTINUOUS
 62
     7
100
AcDbPolyline
 90
        2
 70
     1
 10
0.0
 20
20.0
 42
-1.0
 10
40.0
 20
20.0
 42
-1.0
  0
ENDBLK
  5
181
100
AcDbEntity
  8
0
100
AcDbBlockEnd
  0
BLOCK
  5
183
100
AcDbEntity
  8
0
100
AcDbBlockBegin
  2
MASTER_32
 70
     0
 10
0.0
 20
0.0
 30
0.0
  3
MASTER_32
  1

  0
LWPOLYLINE
  5
184
100
AcDbEntity
  8
0
  6
CONTINUOUS
 62
     7
100
AcDbPolyline
 90
        4
 70
     1
 10
0.0
 20
0.0
 10
40.0
 20
0.0
 10
40.0
 20
30.0
 10
0.0
 20
30.0
  0
ENDBLK
  5
185
100
AcDbEntity
  8
0
100
AcDbBlockEnd
  0
BLOCK
  5
187
100
AcDbEntity
  8
0
100
AcDbBlockBegin
  2
P-LINIE
 70
     0
 10
0.0
 20
0.0
 30
0.0
  3
P-LINIE
  1

  0
LINE
  5
189
100
AcDbEntity
  8
0
  6
DASHEDX2
 62
     7
100
AcDbLine
 10
0.0
 20
12.7
 30
0.0
 11
86.0
 21
12.7
 31
0.0
  0
ENDBLK
  5
18A
100
AcDbEntity
  8
0
100
AcDbBlockEnd
  0
BLOCK
  5
18C
100
AcDbEntity
  8
0
100
AcDbBlockBegin
  2
MASTER_34
 70
     0
 10
0.0
 20
0.0
 30
0.0
  3
MASTER_34
  1

  0
LWPOLYLINE
  5
18D
100
AcDbEntity
  8
0
  6
CONTINUOUS
 62
     7
100
AcDbPolyline
 90
        2
 70
     1
 10
0.0
 20
20.0
 42
-1.0
 10
40.0
 20
20.0
 42
-1.0
  0
ENDBLK
  5
18E
100
AcDbEntity
  8
0
100
AcDbBlockEnd
  0
BLOCK
  5
190
100
AcDbEntity
  8
0
100
AcDbBlockBegin
  2
RECTANGLE_153
 70
     0
 10
0.0
 20
0.0
 30
0.0
  3
RECTANGLE_153
  1

  0
LWPOLYLINE
  5
191
100
AcDbEntity
  8
0
  6
CONTINUOUS
 62
     7
100
AcDbPolyline
 90
        4
 70
     1
 10
30.0
 20
35.0
 10
70.0
 20
35.0
 10
70.0
 20
65.0
 10
30.0
 20
65.0
  0
ENDBLK
  5
192
100
AcDbEntity
  8
0
100
AcDbBlockEnd
  0
BLOCK
  5
194
100
AcDbEntity
  8
0
100
AcDbBlockBegin
  2
CIRCLE_168
 70
     0
 10
0.0
 20
0.0
 30
0.0
  3
CIRCLE_168
  1

  0
LWPOLYLINE
  5
195
100
AcDbEntity
  8
0
  6
CONTINUOUS
 62
     7
100
AcDbPolyline
 90
        2
 70
     1
 10
30.0
 20
50.0
 42
-1.0
 10
70.0
 20
50.0
 42
-1.0
  0
ENDBLK
  5
196
100
AcDbEntity
  8
0
100
AcDbBlockEnd
  0
BLOCK
  5
198
100
AcDbEntity
  8
0
100
AcDbBlockBegin
  2
MASTER_37
 70
     0
 10
0.0
 20
0.0
 30
0.0
  3
MASTER_37
  1

  0
LWPOLYLINE
  5
199
100
AcDbEntity
  8
0
  6
CONTINUOUS
 62
     7
100
AcDbPolyline
 90
        3
 70
     1
 10
43.094011
 20
0.0
 10
20.0
 20
40.0
 10
-3.094011
 20
0.0
  0
ENDBLK
  5
19A
100
AcDbEntity
  8
0
100
AcDbBlockEnd
  0
BLOCK
  5
19C
100
AcDbEntity
  8
0
100
AcDbBlockBegin
  2
M-LINIE_193
 70
     0
 10
0.0
 20
0.0
 30
0.0
  3
M-LINIE_193
  1

  0
LINE
  5
19D
100
AcDbEntity
  8
0
  6
DASHDOT
 62
     7
100
AcDbLine
 10
0.0
 20
12.7
 30
0.0
 11
86.0
 21
12.7
 31
0.0
  0
ENDBLK
  5
19E
100
AcDbEntity
  8
0
100
AcDbBlockEnd
  0
BLOCK
  5
1A0
100
AcDbEntity
  8
0
100
AcDbBlockBegin
  2
FLEX
 70
     0
 10
0.0
 20
0.0
 30
0.0
  3
FLEX
  1

  0
LWPOLYLINE
  5
1A1
100
AcDbEntity
  8
BEMA\U+00DFUNGEN
  6
CONTINUOUS
100
AcDbPolyline
 90
        2
 70
     1
 10
29.5
 20
-7.416667
 10
29.5
 20
11.641667
  0
LWPOLYLINE
  5
1A2
100
AcDbEntity
  8
BEMA\U+00DFUNGEN
  6
CONTINUOUS
100
AcDbPolyline
 90
        2
 70
     1
 10
0.0
 20
-7.416667
 10
0.0
 20
11.641667
  0
LINE
  5
1A3
100
AcDbEntity
  8
BEMA\U+00DFUNGEN
  6
CONTINUOUS
100
AcDbLine
 10
14.75
 20
-5.3
 30
0.0
 11
29.5
 21
-5.3
 31
0.0
  0
LINE
  5
1A4
100
AcDbEntity
  8
BEMA\U+00DFUNGEN
  6
CONTINUOUS
100
AcDbLine
 10
14.75
 20
-5.3
 30
0.0
 11
0.0
 21
-5.3
 31
0.0
  0
MTEXT
  5
1A5
100
AcDbEntity
  8
BEMA\U+00DFUNGEN
100
AcDbMText
 10
7.5
 20
-3.500218
 30
0.0
 40
3.081935
 41
9.676842
 71
     5
 72
     5
  1
\C7;\fArial|b0|i0|;\H3.0819353945553;29,5\P0mm
  0
ENDBLK
  5
1A6
100
AcDbEntity
  8
0
100
AcDbBlockEnd
  0
BLOCK
  5
1A8
100
AcDbEntity
  8
0
100
AcDbBlockBegin
  2
MASTER_40
 70
     2
 10
0.0
 20
0.0
 30
0.0
  3
MASTER_40
  1

  0
LWPOLYLINE
  5
1A9
100
AcDbEntity
  8
0
  6
CONTINUOUS
 62
     6
100
AcDbPolyline
 90
        4
 70
     1
 10
5.0
 20
5.0
 10
292.0
 20
5.0
 10
292.0
 20
215.396463
 10
5.0
 20
215.396463
  0
LINE
  5
1AA
100
AcDbEntity
  8
0
  6
CONTINUOUS
 62
     7
100
AcDbLine
 10
44.625
 20
210.396463
 30
0.0
 11
44.625
 21
215.396463
 31
0.0
  0
LINE
  5
1AB
100
AcDbEntity
  8
0
  6
CONTINUOUS
 62
     7
100
AcDbLine
 10
79.25
 20
210.396463
 30
0.0
 11
79.25
 21
215.396463
 31
0.0
  0
LINE
  5
1AC
100
AcDbEntity
  8
0
  6
CONTINUOUS
 62
     7
100
AcDbLine
 10
113.875
 20
210.396463
 30
0.0
 11
113.875
 21
215.396463
 31
0.0
  0
LINE
  5
1AD
100
AcDbEntity
  8
0
  6
CONTINUOUS
 62
     7
100
AcDbLine
 10
148.5
 20
210.396463
 30
0.0
 11
148.5
 21
215.396463
 31
0.0
  0
LINE
  5
1AE
100
AcDbEntity
  8
0
  6
CONTINUOUS
 62
     7
100
AcDbLine
 10
183.125
 20
210.396463
 30
0.0
 11
183.125
 21
215.396463
 31
0.0
  0
LINE
  5
1AF
100
AcDbEntity
  8
0
  6
CONTINUOUS
 62
     7
100
AcDbLine
 10
217.75
 20
210.396463
 30
0.0
 11
217.75
 21
215.396463
 31
0.0
  0
LINE
  5
1B0
100
AcDbEntity
  8
0
  6
CONTINUOUS
 62
     7
100
AcDbLine
 10
252.375
 20
210.396463
 30
0.0
 11
252.375
 21
215.396463
 31
0.0
  0
LINE
  5
1B1
100
AcDbEntity
  8
0
  6
CONTINUOUS
 62
     7
100
AcDbLine
 10
44.625
 20
10.0
 30
0.0
 11
44.625
 21
5.0
 31
0.0
  0
LINE
  5
1B2
100
AcDbEntity
  8
0
  6
CONTINUOUS
 62
     7
100
AcDbLine
 10
79.25
 20
10.0
 30
0.0
 11
79.25
 21
5.0
 31
0.0
  0
LINE
  5
1B3
100
AcDbEntity
  8
0
  6
CONTINUOUS
 62
     7
100
AcDbLine
 10
113.875
 20
10.0
 30
0.0
 11
113.875
 21
5.0
 31
0.0
  0
LINE
  5
1B4
100
AcDbEntity
  8
0
  6
CONTINUOUS
 62
     7
100
AcDbLine
 10
148.5
 20
10.0
 30
0.0
 11
148.5
 21
5.0
 31
0.0
  0
LINE
  5
1B5
100
AcDbEntity
  8
0
  6
CONTINUOUS
 62
     7
100
AcDbLine
 10
183.125
 20
10.0
 30
0.0
 11
183.125
 21
5.0
 31
0.0
  0
LINE
  5
1B6
100
AcDbEntity
  8
0
  6
CONTINUOUS
 62
     7
100
AcDbLine
 10
217.75
 20
10.0
 30
0.0
 11
217.75
 21
5.0
 31
0.0
  0
LINE
  5
1B7
100
AcDbEntity
  8
0
  6
CONTINUOUS
 62
     7
100
AcDbLine
 10
252.375
 20
10.0
 30
0.0
 11
252.375
 21
5.0
 31
0.0
  0
LINE
  5
1B8
100
AcDbEntity
  8
0
  6
CONTINUOUS
 62
     7
100
AcDbLine
 10
10.0
 20
185.346905
 30
0.0
 11
5.0
 21
185.346905
 31
0.0
  0
LINE
  5
1B9
100
AcDbEntity
  8
0
  6
CONTINUOUS
 62
     7
100
AcDbLine
 10
10.0
 20
160.297347
 30
0.0
 11
5.0
 21
160.297347
 31
0.0
  0
LINE
  5
1BA
100
AcDbEntity
  8
0
  6
CONTINUOUS
 62
     7
100
AcDbLine
 10
10.0
 20
135.247789
 30
0.0
 11
5.0
 21
135.247789
 31
0.0
  0
LINE
  5
1BB
100
AcDbEntity
  8
0
  6
CONTINUOUS
 62
     7
100
AcDbLine
 10
10.0
 20
110.198231
 30
0.0
 11
5.0
 21
110.198231
 31
0.0
  0
LINE
  5
1BC
100
AcDbEntity
  8
0
  6
CONTINUOUS
 62
     7
100
AcDbLine
 10
10.0
 20
85.148674
 30
0.0
 11
5.0
 21
85.148674
 31
0.0
  0
LINE
  5
1BD
100
AcDbEntity
  8
0
  6
CONTINUOUS
 62
     7
100
AcDbLine
 10
10.0
 20
60.099116
 30
0.0
 11
5.0
 21
60.099116
 31
0.0
  0
LINE
  5
1BE
100
AcDbEntity
  8
0
  6
CONTINUOUS
 62
     7
100
AcDbLine
 10
10.0
 20
35.049558
 30
0.0
 11
5.0
 21
35.049558
 31
0.0
  0
LINE
  5
1BF
100
AcDbEntity
  8
0
  6
CONTINUOUS
 62
     7
100
AcDbLine
 10
287.0
 20
185.346905
 30
0.0
 11
292.0
 21
185.346905
 31
0.0
  0
LINE
  5
1C0
100
AcDbEntity
  8
0
  6
CONTINUOUS
 62
     7
100
AcDbLine
 10
287.0
 20
160.297347
 30
0.0
 11
292.0
 21
160.297347
 31
0.0
  0
LINE
  5
1C1
100
AcDbEntity
  8
0
  6
CONTINUOUS
 62
     7
100
AcDbLine
 10
287.0
 20
135.247789
 30
0.0
 11
292.0
 21
135.247789
 31
0.0
  0
LINE
  5
1C2
100
AcDbEntity
  8
0
  6
CONTINUOUS
 62
     7
100
AcDbLine
 10
287.0
 20
110.198231
 30
0.0
 11
292.0
 21
110.198231
 31
0.0
  0
LINE
  5
1C3
100
AcDbEntity
  8
0
  6
CONTINUOUS
 62
     7
100
AcDbLine
 10
287.0
 20
85.148674
 30
0.0
 11
292.0
 21
85.148674
 31
0.0
  0
LINE
  5
1C4
100
AcDbEntity
  8
0
  6
CONTINUOUS
 62
     7
100
AcDbLine
 10
287.0
 20
60.099116
 30
0.0
 11
292.0
 21
60.099116
 31
0.0
  0
LINE
  5
1C5
100
AcDbEntity
  8
0
  6
CONTINUOUS
 62
     7
100
AcDbLine
 10
287.0
 20
35.049558
 30
0.0
 11
292.0
 21
35.049558
 31
0.0
  0
LWPOLYLINE
  5
1C6
100
AcDbEntity
  8
0
  6
CONTINUOUS
 62
     7
100
AcDbPolyline
 90
        4
 70
     1
 10
10.0
 20
210.396463
 10
10.0
 20
10.0
 10
287.0
 20
10.0
 10
287.0
 20
210.396463
  0
MTEXT
  5
1C7
100
AcDbEntity
  8
0
100
AcDbMText
 10
289.5
 20
213.966627
 30
0.0
 40
6.164012
 41
5.0
 71
     2
 72
     5
  1
\C7;\fArial|b0|i0|;\H6.1640118710697;H\PG\PF\PE\PD\PC\PB\PA\P
  0
MTEXT
  5
1C8
100
AcDbEntity
  8
0
100
AcDbMText
 10
5.0
 20
7.5
 30
0.0
 40
6.164012
 41
287.0
 71
     4
 72
     5
  1
\C7;\fArial|b0|i0|;\H6.1640118710697;87654\P321
  0
MTEXT
  5
1C9
100
AcDbEntity
  8
0
100
AcDbMText
 10
7.5
 20
213.966627
 30
0.0
 40
6.164012
 41
5.0
 71
     2
 72
     5
  1
\C7;\fArial|b0|i0|;\H6.1640118710697;H\PG\PF\PE\PD\PC\PB\PA\P
  0
MTEXT
  5
1CA
100
AcDbEntity
  8
0
100
AcDbMText
 10
5.0
 20
212.896463
 30
0.0
 40
6.164012
 41
287.0
 71
     4
 72
     5
  1
\C7;\fArial|b0|i0|;\H6.1640118710697;87654\P321
  0
ENDBLK
  5
1CB
100
AcDbEntity
  8
0
100
AcDbBlockEnd
  0
BLOCK
  5
1CD
100
AcDbEntity
  8
0
100
AcDbBlockBegin
  2
MASTER_41
 70
     0
 10
0.0
 20
0.0
 30
0.0
  3
MASTER_41
  1

  0
LWPOLYLINE
  5
1CE
100
AcDbEntity
  8
BEMA\U+00DFUNGEN
  6
CONTINUOUS
100
AcDbPolyline
 90
        3
 70
     0
 10
33.0
 20
0.0
 10
18.0
 20
0.0
 10
0.0
 20
33.0
  0
MTEXT
  5
1CF
100
AcDbEntity
  8
BEMA\U+00DFUNGEN
100
AcDbMText
 10
-3.425577
 20
0.0
 30
0.0
 40
3.081935
 41
6.851153
 71
     5
 72
     5
  1
\C7;\fArial|b0|i0|;\H3.0819353945553;x\Px\Px
  0
ENDBLK
  5
1D0
100
AcDbEntity
  8
0
100
AcDbBlockEnd
  0
BLOCK
  5
1D2
100
AcDbEntity
  8
0
100
AcDbBlockBegin
  2
MASTER_42
 70
     0
 10
0.0
 20
0.0
 30
0.0
  3
MASTER_42
  1

  0
LWPOLYLINE
  5
1D3
100
AcDbEntity
  8
BEMA\U+00DFUNGEN
  6
CONTINUOUS
100
AcDbPolyline
 90
        2
 70
     1
 10
2.877778
 20
0.0
 10
11.288889
 20
0.0
  0
LWPOLYLINE
  5
1D4
100
AcDbEntity
  8
BEMA\U+00DFUNGEN
  6
CONTINUOUS
100
AcDbPolyline
 90
        2
 70
     1
 10
2.877778
 20
25.0
 10
11.288889
 20
25.0
  0
LINE
  5
1D5
100
AcDbEntity
  8
BEMA\U+00DFUNGEN
  6
CONTINUOUS
100
AcDbLine
 10
5.7
 20
12.5
 30
0.0
 11
5.7
 21
0.0
 31
0.0
  0
LINE
  5
1D6
100
AcDbEntity
  8
BEMA\U+00DFUNGEN
  6
CONTINUOUS
100
AcDbLine
 10
5.7
 20
12.5
 30
0.0
 11
5.7
 21
25.0
 31
0.0
  0
MTEXT
  5
1D7
100
AcDbEntity
  8
BEMA\U+00DFUNGEN
100
AcDbMText
 10
3.300483
 20
12.5
 30
0.0
 40
4.109294
 41
12.814054
 71
     5
 72
     5
  1
\C7;\fArial|b0|i0|;\H4.1092942200601;25,0\P0mm
 11
0.0
 21
1.0
 31
0.0
  0
ENDBLK
  5
1D8
100
AcDbEntity
  8
0
100
AcDbBlockEnd
  0
BLOCK
  5
1DA
100
AcDbEntity
  8
0
100
AcDbBlockBegin
  2
MASTER_43
 70
     2
 10
0.0
 20
0.0
 30
0.0
  3
MASTER_43
  1

  0
ATTDEF
  5
1DB
100
AcDbEntity
  8
0
100
AcDbText
 10
16.5
 20
12.7
 30
0.0
 40
0.2
  1
0.00
100
AcDbAttributeDefinition
  3
Genauigkeit
  2
LPREC
 70
     0
  0
ATTDEF
  5
1DC
100
AcDbEntity
  8
0
100
AcDbText
 10
16.5
 20
12.7
 30
0.0
 40
0.2
  1
 Einheiten des Zeichenblattes verwenden
100
AcDbAttributeDefinition
  3
Ma\U+00DFeinheiten
  2
LUNITS
 70
     0
  0
ATTDEF
  5
1DD
100
AcDbEntity
  8
0
100
AcDbText
 10
16.5
 20
12.7
 30
0.0
 40
0.2
  1
Ma\U+00DFeinheiten anzeigen
100
AcDbAttributeDefinition
  3
Ma\U+00DFeinheiten-Anzeige
  2
SHOWUNITS
 70
     0
  0
ATTDEF
  5
1DE
100
AcDbEntity
  8
0
100
AcDbText
 10
16.5
 20
12.7
 30
0.0
 40
0.2
  1
Beide
100
AcDbAttributeDefinition
  3
Erweiterungslinien
  2
EXTENSIONS
 70
     0
  0
LWPOLYLINE
  5
1DF
100
AcDbEntity
  8
BEMA\U+00DFUNGEN
  6
CONTINUOUS
100
AcDbPolyline
 90
        2
 70
     1
 10
16.5
 20
-3.416667
 10
16.5
 20
11.641667
  0
LWPOLYLINE
  5
1E0
100
AcDbEntity
  8
BEMA\U+00DFUNGEN
  6
CONTINUOUS
100
AcDbPolyline
 90
        2
 70
     1
 10
0.0
 20
-3.416667
 10
0.0
 20
11.641667
  0
LINE
  5
1E1
100
AcDbEntity
  8
BEMA\U+00DFUNGEN
  6
CONTINUOUS
100
AcDbLine
 10
8.25
 20
-1.3
 30
0.0
 11
16.5
 21
-1.3
 31
0.0
  0
LINE
  5
1E2
100
AcDbEntity
  8
BEMA\U+00DFUNGEN
  6
CONTINUOUS
100
AcDbLine
 10
8.25
 20
-1.3
 30
0.0
 11
0.0
 21
-1.3
 31
0.0
  0
MTEXT
  5
1E3
100
AcDbEntity
  8
BEMA\U+00DFUNGEN
100
AcDbMText
 10
8.5
 20
0.499782
 30
0.0
 40
3.081935
 41
11.911299
 71
     5
 72
     5
  1
\C7;\fArial|b0|i0|;\H3.0819353945553;\U+00D8 \P16,50\Pmm
  0
ENDBLK
  5
1E4
100
AcDbEntity
  8
0
100
AcDbBlockEnd
  0
BLOCK
  5
1E6
100
AcDbEntity
  8
0
100
AcDbBlockBegin
  2
FLACHKOPF_OBEN
 70
     2
 10
0.0
 20
0.0
 30
0.0
  3
FLACHKOPF_OBEN
  1

  0
ATTDEF
  5
1E7
100
AcDbEntity
  8
0
100
AcDbText
 10
25.0
 20
25.0
 30
0.0
 40
0.2
  1
M5
100
AcDbAttributeDefinition
  3
Gewindedurchmesser
  2
THREAD
 70
     0
  0
ATTDEF
  5
1E8
100
AcDbEntity
  8
0
100
AcDbText
 10
25.0
 20
25.0
 30
0.0
 40
0.2
  1
0.19685039370079
100
AcDbAttributeDefinition
  3
Durchmesser
  2
DIAMETER
 70
     0
  0
LWPOLYLINE
  5
1E9
100
AcDbEntity
  8
0
  6
CONTINUOUS
 62
     7
100
AcDbPolyline
 90
        2
 70
     1
 10
20.0
 20
25.0
 42
-1.0
 10
30.0
 20
25.0
 42
-1.0
  0
LINE
  5
1EA
100
AcDbEntity
  8
0
  6
CONTINUOUS
 62
     7
100
AcDbLine
 10
21.05
 20
21.94
 30
0.0
 11
28.06
 21
28.95
 31
0.0
  0
LINE
  5
1EB
100
AcDbEntity
  8
0
  6
CONTINUOUS
 62
     7
100
AcDbLine
 10
28.94
 20
28.06
 30
0.0
 11
21.94
 21
21.06
 31
0.0
  0
LWPOLYLINE
  5
1ED
100
AcDbEntity
  8
0
  6
DOT
 62
     7
100
AcDbPolyline
 90
        2
 70
     1
 10
22.5
 20
25.0
 42
-1.0
 10
27.5
 20
25.0
 42
-1.0
  0
LWPOLYLINE
  5
1EE
100
AcDbEntity
  8
0
  6
DOT
 62
     7
100
AcDbPolyline
 90
        2
 70
     1
 10
23.25
 20
25.0
 42
-1.0
 10
26.75
 20
25.0
 42
-1.0
  0
ENDBLK
  5
1EF
100
AcDbEntity
  8
0
100
AcDbBlockEnd
  0
BLOCK
  5
1F1
100
AcDbEntity
  8
0
100
AcDbBlockBegin
  2
MASTER_45
 70
     0
 10
0.0
 20
0.0
 30
0.0
  3
MASTER_45
  1

  0
LINE
  5
1F2
100
AcDbEntity
  8
0
  6
DASHEDX2
 62
     7
100
AcDbLine
 10
0.0
 20
12.7
 30
0.0
 11
86.0
 21
12.7
 31
0.0
  0
ENDBLK
  5
1F3
100
AcDbEntity
  8
0
100
AcDbBlockEnd
  0
BLOCK
  5
1F5
100
AcDbEntity
  8
0
100
AcDbBlockBegin
  2
ACHTECK
 70
     0
 10
0.0
 20
0.0
 30
0.0
  3
ACHTECK
  1

  0
LWPOLYLINE
  5
1F6
100
AcDbEntity
  8
0
  6
CONTINUOUS
 62
     7
100
AcDbPolyline
 90
        8
 70
     1
 10
58.284272
 20
70.0
 10
41.715728
 20
70.0
 10
30.0
 20
58.284272
 10
30.0
 20
41.715728
 10
41.715728
 20
30.0
 10
58.284272
 20
30.0
 10
70.0
 20
41.715728
 10
70.0
 20
58.284272
  0
ENDBLK
  5
1F7
100
AcDbEntity
  8
0
100
AcDbBlockEnd
  0
BLOCK
  5
1F9
100
AcDbEntity
  8
0
100
AcDbBlockBegin
  2
MASTER_47
 70
     0
 10
0.0
 20
0.0
 30
0.0
  3
MASTER_47
  1

  0
LWPOLYLINE
  5
1FA
100
AcDbEntity
  8
0
  6
CONTINUOUS
 62
     7
100
AcDbPolyline
 90
        4
 70
     1
 10
62.5
 20
-2.5
 10
63.5
 20
-2.5
 10
63.5
 20
7.5
 10
62.5
 20
7.5
  0
LINE
  5
1FB
100
AcDbEntity
  8
0
  6
DOT
 62
     7
100
AcDbLine
 10
62.5
 20
-0.125
 30
0.0
 11
63.5
 21
-0.125
 31
0.0
  0
LINE
  5
1FC
100
AcDbEntity
  8
0
  6
DOT
 62
     7
100
AcDbLine
 10
62.5
 20
5.125
 30
0.0
 11
63.5
 21
5.125
 31
0.0
  0
LWPOLYLINE
  5
1FD
100
AcDbEntity
  8
0
  6
CONTINUOUS
 62
     7
100
AcDbPolyline
 90
        6
 70
     1
 10
53.0
 20
-2.5
 10
53.5
 20
-2.5
 10
53.5
 20
7.5
 10
53.0
 20
7.5
 10
52.5
 20
6.386956
 10
52.5
 20
-1.386956
  0
LINE
  5
1FE
100
AcDbEntity
  8
0
  6
CONTINUOUS
 62
     7
100
AcDbLine
 10
53.0
 20
-2.5
 30
0.0
 11
53.0
 21
7.5
 31
0.0
  0
LINE
  5
1FF
100
AcDbEntity
  8
0
  6
DOT
 62
     7
100
AcDbLine
 10
52.5
 20
-0.125
 30
0.0
 11
53.5
 21
-0.125
 31
0.0
  0
LINE
  5
200
100
AcDbEntity
  8
0
  6
DOT
 62
     7
100
AcDbLine
 10
52.5
 20
5.125
 30
0.0
 11
53.5
 21
5.125
 31
0.0
  0
LWPOLYLINE
  5
201
100
AcDbEntity
  8
0
  6
CONTINUOUS
 62
     7
100
AcDbPolyline
 90
        2
 70
     1
 10
72.5
 20
2.5
 42
1.0
 10
82.5
 20
2.5
 42
1.0
  0
LWPOLYLINE
  5
202
100
AcDbEntity
  8
0
  6
CONTINUOUS
 62
     7
100
AcDbPolyline
 90
        2
 70
     1
 10
74.875
 20
2.5
 42
1.0
 10
80.125
 20
2.5
 42
1.0
  0
LWPOLYLINE
  5
203
100
AcDbEntity
  8
0
  6
CONTINUOUS
 62
     7
100
AcDbPolyline
 90
        2
 70
     1
 10
32.5
 20
2.5
 42
1.0
 10
42.5
 20
2.5
 42
1.0
  0
LWPOLYLINE
  5
204
100
AcDbEntity
  8
0
  6
CONTINUOUS
 62
     7
100
AcDbPolyline
 90
        2
 70
     1
 10
34.875
 20
2.5
 42
1.0
 10
40.125
 20
2.5
 42
1.0
  0
LWPOLYLINE
  5
205
100
AcDbEntity
  8
0
  6
CONTINUOUS
 62
     7
100
AcDbPolyline
 90
        2
 70
     1
 10
33.4
 20
2.5
 42
1.0
 10
41.6
 20
2.5
 42
1.0
  0
LINE
  5
206
100
AcDbEntity
  8
0
  6
CONTINUOUS
 62
     7
100
AcDbLine
 10
65.875
 20
28.125
 30
0.0
 11
69.125
 21
28.125
 31
0.0
  0
LINE
  5
207
100
AcDbEntity
  8
0
  6
CONTINUOUS
 62
     7
100
AcDbLine
 10
65.875
 20
31.875
 30
0.0
 11
69.125
 21
31.875
 31
0.0
  0
LWPOLYLINE
  5
208
100
AcDbEntity
  8
0
  6
CONTINUOUS
 62
     7
100
AcDbPolyline
 90
        8
 70
     0
 10
65.875
 20
25.4
 42
-0.277858
 10
65.875
 20
28.125
 42
-0.2
 10
65.875
 20
31.875
 42
-0.277858
 10
65.875
 20
34.6
 10
69.125
 20
34.6
 42
-0.277858
 10
69.125
 20
31.875
 42
-0.2
 10
69.125
 20
28.125
 42
-0.277858
 10
69.125
 20
25.4
  0
LWPOLYLINE
  5
209
100
AcDbEntity
  8
0
  6
CONTINUOUS
 62
     7
100
AcDbPolyline
 90
        8
 70
     1
 10
65.875
 20
25.4
 10
65.5
 20
25.95
 10
65.5
 20
34.05
 10
65.875
 20
34.6
 10
69.125
 20
34.6
 10
69.5
 20
34.05
 42
-0.925926
 10
69.5
 20
25.95
 10
69.125
 20
25.4
  0
LINE
  5
20A
100
AcDbEntity
  8
0
  6
DOT
 62
     7
100
AcDbLine
 10
69.5
 20
32.5
 30
0.0
 11
65.5
 21
32.5
 31
0.0
  0
LINE
  5
20B
100
AcDbEntity
  8
0
  6
DOT
 62
     7
100
AcDbLine
 10
69.5
 20
27.5
 30
0.0
 11
65.5
 21
27.5
 31
0.0
  0
ARC
  5
20C
100
AcDbEntity
  8
0
  6
DOT
 62
     7
100
AcDbCircle
 10
69.5
 20
30.0
 30
0.0
 40
2.5
100
AcDbArc
 50
270.0
 51
90.0
  0
ARC
  5
20D
100
AcDbEntity
  8
0
  6
CONTINUOUS
 62
     7
100
AcDbCircle
 10
35.0
 20
30.0
 30
0.0
 40
4.0
100
AcDbArc
 50
0.0
 51
180.0
  0
ARC
  5
20E
100
AcDbEntity
  8
0
  6
CONTINUOUS
 62
     7
100
AcDbCircle
 10
35.0
 20
30.0
 30
0.0
 40
4.0
100
AcDbArc
 50
180.0
 51
0.0
  0
LWPOLYLINE
  5
20F
100
AcDbEntity
  8
0
  6
CONTINUOUS
 62
     7
100
AcDbPolyline
 90
        6
 70
     1
 10
31.0
 20
27.690599
 10
31.0
 20
32.309401
 10
35.0
 20
34.618802
 10
39.0
 20
32.309401
 10
39.0
 20
27.690599
 10
35.0
 20
25.381198
  0
LWPOLYLINE
  5
210
100
AcDbEntity
  8
0
  6
DOT
 62
     7
100
AcDbPolyline
 90
        2
 70
     1
 10
32.5
 20
30.0
 42
-1.0
 10
37.5
 20
30.0
 42
-1.0
  0
LWPOLYLINE
  5
211
100
AcDbEntity
  8
0
  6
DOT
 62
     7
100
AcDbPolyline
 90
        2
 70
     1
 10
33.25
 20
30.0
 42
-1.0
 10
36.75
 20
30.0
 42
-1.0
  0
LINE
  5
212
100
AcDbEntity
  8
0
  6
CONTINUOUS
 62
     7
100
AcDbLine
 10
-0.458333
 20
32.3
 30
0.0
 11
2.5
 21
32.3
 31
0.0
  0
LINE
  5
213
100
AcDbEntity
  8
0
  6
CONTINUOUS
 62
     7
100
AcDbLine
 10
-0.458333
 20
27.7
 30
0.0
 11
2.5
 21
27.7
 31
0.0
  0
LWPOLYLINE
  5
214
100
AcDbEntity
  8
0
  6
CONTINUOUS
 62
     7
100
AcDbPolyline
 90
        4
 70
     0
 10
-0.458333
 20
34.6
 42
0.327345
 10
-0.458333
 20
32.3
 42
0.163043
 10
-0.458333
 20
27.7
 42
0.327345
 10
-0.458333
 20
25.4
  0
LWPOLYLINE
  5
215
100
AcDbEntity
  8
0
  6
CONTINUOUS
 62
     7
100
AcDbPolyline
 90
        6
 70
     1
 10
-0.458333
 20
34.6
 10
-0.833333
 20
34.05
 10
-0.833333
 20
25.95
 10
-0.458333
 20
25.4
 10
2.5
 20
25.4
 10
2.5
 20
34.6
  0
LINE
  5
216
100
AcDbEntity
  8
0
  6
CONTINUOUS
 62
     7
100
AcDbLine
 10
16.75
 20
32.5
 30
0.0
 11
16.75
 21
27.5
 31
0.0
  0
LINE
  5
217
100
AcDbEntity
  8
0
  6
CONTINUOUS
 62
     7
100
AcDbLine
 10
5.0
 20
32.5
 30
0.0
 11
5.0
 21
27.5
 31
0.0
  0
LWPOLYLINE
  5
218
100
AcDbEntity
  8
0
  6
CONTINUOUS
 62
     7
100
AcDbPolyline
 90
        6
 70
     1
 10
2.5
 20
32.5
 10
16.75
 20
32.5
 10
17.5
 20
31.75
 10
17.5
 20
28.25
 10
16.75
 20
27.5
 10
2.5
 20
27.5
  0
LWPOLYLINE
  5
219
100
AcDbEntity
  8
0
  6
CONTINUOUS
 62
     7
100
AcDbPolyline
 90
        3
 70
     0
 10
3.700962
 20
27.5
 10
5.0
 20
28.25
 10
17.5
 20
28.25
  0
LWPOLYLINE
  5
21A
100
AcDbEntity
  8
0
  6
CONTINUOUS
 62
     7
100
AcDbPolyline
 90
        3
 70
     0
 10
3.700962
 20
32.5
 10
5.0
 20
31.75
 10
17.5
 20
31.75
  0
LINE
  5
21B
100
AcDbEntity
  8
0
  6
CONTINUOUS
 62
     7
100
AcDbLine
 10
14.25
 20
20.0
 30
0.0
 11
14.25
 21
15.0
 31
0.0
  0
LINE
  5
21C
100
AcDbEntity
  8
0
  6
CONTINUOUS
 62
     7
100
AcDbLine
 10
5.0
 20
20.0
 30
0.0
 11
5.0
 21
15.0
 31
0.0
  0
LWPOLYLINE
  5
21D
100
AcDbEntity
  8
0
  6
CONTINUOUS
 62
     7
100
AcDbPolyline
 90
       12
 70
     1
 10
2.5
 20
20.0
 10
14.25
 20
20.0
 10
15.0
 20
19.25
 10
15.0
 20
15.75
 10
14.25
 20
15.0
 10
2.5
 20
15.0
 10
0.0
 20
12.5
 10
0.0
 20
16.875
 10
1.25
 20
16.875
 10
1.25
 20
18.125
 10
0.0
 20
18.125
 10
0.0
 20
22.5
  0
LINE
  5
21E
100
AcDbEntity
  8
0
  6
CONTINUOUS
 62
     7
100
AcDbLine
 10
2.5
 20
15.0
 30
0.0
 11
2.5
 21
20.0
 31
0.0
  0
LWPOLYLINE
  5
21F
100
AcDbEntity
  8
0
  6
CONTINUOUS
 62
     7
100
AcDbPolyline
 90
        3
 70
     0
 10
3.700962
 20
15.0
 10
5.0
 20
15.75
 10
15.0
 20
15.75
  0
LWPOLYLINE
  5
220
100
AcDbEntity
  8
0
  6
CONTINUOUS
 62
     7
100
AcDbPolyline
 90
        3
 70
     0
 10
3.700962
 20
20.0
 10
5.0
 20
19.25
 10
15.0
 20
19.25
  0
LWPOLYLINE
  5
221
100
AcDbEntity
  8
0
  6
CONTINUOUS
 62
     7
100
AcDbPolyline
 90
        6
 70
     1
 10
-1.875
 20
6.5
 10
-2.5
 20
5.875
 10
-2.5
 20
-0.875
 10
-1.875
 20
-1.5
 10
2.5
 20
-1.5
 10
2.5
 20
6.5
  0
LINE
  5
222
100
AcDbEntity
  8
0
  6
CONTINUOUS
 62
     7
100
AcDbLine
 10
-1.875
 20
6.5
 30
0.0
 11
-1.875
 21
-1.5
 31
0.0
  0
LINE
  5
223
100
AcDbEntity
  8
0
  6
CONTINUOUS
 62
     7
100
AcDbLine
 10
16.75
 20
5.0
 30
0.0
 11
16.75
 21
0.0
 31
0.0
  0
LINE
  5
224
100
AcDbEntity
  8
0
  6
CONTINUOUS
 62
     7
100
AcDbLine
 10
5.0
 20
5.0
 30
0.0
 11
5.0
 21
0.0
 31
0.0
  0
LWPOLYLINE
  5
225
100
AcDbEntity
  8
0
  6
CONTINUOUS
 62
     7
100
AcDbPolyline
 90
        6
 70
     1
 10
2.5
 20
5.0
 10
16.75
 20
5.0
 10
17.5
 20
4.25
 10
17.5
 20
0.75
 10
16.75
 20
0.0
 10
2.5
 20
0.0
  0
LWPOLYLINE
  5
226
100
AcDbEntity
  8
0
  6
CONTINUOUS
 62
     7
100
AcDbPolyline
 90
        3
 70
     0
 10
3.700962
 20
0.0
 10
5.0
 20
0.75
 10
17.5
 20
0.75
  0
LWPOLYLINE
  5
227
100
AcDbEntity
  8
0
  6
CONTINUOUS
 62
     7
100
AcDbPolyline
 90
        3
 70
     0
 10
3.700962
 20
5.0
 10
5.0
 20
4.25
 10
17.5
 20
4.25
  0
LWPOLYLINE
  5
228
100
AcDbEntity
  8
0
  6
DOT
 62
     7
100
AcDbPolyline
 90
        5
 70
     0
 10
-2.5
 20
5.0
 10
0.5
 20
5.0
 10
1.25
 20
2.5
 10
0.5
 20
0.0
 10
-2.5
 20
0.0
  0
LINE
  5
229
100
AcDbEntity
  8
0
  6
DOT
 62
     7
100
AcDbLine
 10
0.5
 20
5.0
 30
0.0
 11
0.5
 21
0.0
 31
0.0
  0
LINE
  5
22A
100
AcDbEntity
  8
0
  6
DOT
 62
     7
100
AcDbLine
 10
-2.5
 20
3.6075
 30
0.0
 11
0.5
 21
3.6075
 31
0.0
  0
LINE
  5
22B
100
AcDbEntity
  8
0
  6
DOT
 62
     7
100
AcDbLine
 10
-2.5
 20
1.3925
 30
0.0
 11
0.5
 21
1.3925
 31
0.0
  0
LINE
  5
22C
100
AcDbEntity
  8
0
  6
CONTINUOUS
 62
     7
100
AcDbLine
 10
54.125
 20
27.7
 30
0.0
 11
50.5
 21
27.7
 31
0.0
  0
LINE
  5
22D
100
AcDbEntity
  8
0
  6
CONTINUOUS
 62
     7
100
AcDbLine
 10
54.125
 20
32.3
 30
0.0
 11
50.5
 21
32.3
 31
0.0
  0
LWPOLYLINE
  5
22E
100
AcDbEntity
  8
0
  6
CONTINUOUS
 62
     7
100
AcDbPolyline
 90
        4
 70
     0
 10
54.125
 20
25.4
 42
0.327345
 10
54.125
 20
27.7
 42
0.163043
 10
54.125
 20
32.3
 42
0.327345
 10
54.125
 20
34.6
  0
LWPOLYLINE
  5
22F
100
AcDbEntity
  8
0
  6
CONTINUOUS
 62
     7
100
AcDbPolyline
 90
        6
 70
     1
 10
54.125
 20
25.4
 10
54.5
 20
25.95
 10
54.5
 20
34.05
 10
54.125
 20
34.6
 10
50.5
 20
34.6
 10
50.5
 20
25.4
  0
LINE
  5
230
100
AcDbEntity
  8
0
  6
DOT
 62
     7
100
AcDbLine
 10
50.5
 20
32.5
 30
0.0
 11
54.5
 21
32.5
 31
0.0
  0
LINE
  5
231
100
AcDbEntity
  8
0
  6
DOT
 62
     7
100
AcDbLine
 10
50.5
 20
27.5
 30
0.0
 11
54.5
 21
27.5
 31
0.0
  0
LINE
  5
232
100
AcDbEntity
  8
0
  6
CONTINUOUS
 62
     7
100
AcDbLine
 10
32.0
 20
17.542333
 30
0.0
 11
32.0
 21
20.0
 31
0.0
  0
LINE
  5
233
100
AcDbEntity
  8
0
  6
CONTINUOUS
 62
     7
100
AcDbLine
 10
32.0
 20
20.0
 30
0.0
 11
33.0
 21
20.0
 31
0.0
  0
LINE
  5
234
100
AcDbEntity
  8
0
  6
CONTINUOUS
 62
     7
100
AcDbLine
 10
33.0
 20
20.0
 30
0.0
 11
33.0
 21
17.542333
 31
0.0
  0
LINE
  5
235
100
AcDbEntity
  8
0
  6
CONTINUOUS
 62
     7
100
AcDbLine
 10
32.0
 20
12.457667
 30
0.0
 11
32.0
 21
10.0
 31
0.0
  0
LINE
  5
236
100
AcDbEntity
  8
0
  6
CONTINUOUS
 62
     7
100
AcDbLine
 10
32.0
 20
10.0
 30
0.0
 11
33.0
 21
10.0
 31
0.0
  0
LINE
  5
237
100
AcDbEntity
  8
0
  6
CONTINUOUS
 62
     7
100
AcDbLine
 10
33.0
 20
10.0
 30
0.0
 11
33.0
 21
12.457667
 31
0.0
  0
LWPOLYLINE
  5
238
100
AcDbEntity
  8
0
  6
CONTINUOUS
 62
     7
100
AcDbPolyline
 90
        4
 70
     1
 10
31.75
 20
14.18
 10
32.78
 20
15.16
 10
33.0
 20
20.0
 10
32.0
 20
20.0
  0
LWPOLYLINE
  5
239
100
AcDbEntity
  8
0
  6
CONTINUOUS
 62
     7
100
AcDbPolyline
 90
        4
 70
     1
 10
33.28
 20
14.85
 10
32.22
 20
13.7
 10
32.0
 20
10.0
 10
33.0
 20
10.0
  0
LINE
  5
23A
100
AcDbEntity
  8
0
  6
DOT
 62
     7
100
AcDbLine
 10
32.0
 20
17.457667
 30
0.0
 11
32.0
 21
12.542333
 31
0.0
  0
LINE
  5
23B
100
AcDbEntity
  8
0
  6
DOT
 62
     7
100
AcDbLine
 10
33.0
 20
17.457667
 30
0.0
 11
33.0
 21
12.542333
 31
0.0
  0
LINE
  5
23C
100
AcDbEntity
  8
0
  6
DOT
 62
     7
100
AcDbLine
 10
32.0
 20
12.375
 30
0.0
 11
33.0
 21
12.375
 31
0.0
  0
LINE
  5
23D
100
AcDbEntity
  8
0
  6
DOT
 62
     7
100
AcDbLine
 10
32.0
 20
17.625
 30
0.0
 11
33.0
 21
17.625
 31
0.0
  0
LWPOLYLINE
  5
23E
100
AcDbEntity
  8
0
  6
CONTINUOUS
 62
     7
100
AcDbPolyline
 90
       20
 70
     1
 10
46.875
 20
18.0
 10
48.5
 20
18.0
 42
0.149071
 10
49.25
 20
18.375
 42
0.185695
 10
49.5
 20
19.0
 10
49.5
 20
20.625
 10
50.5
 20
20.625
 10
50.5
 20
19.0
 42
0.185695
 10
50.75
 20
18.375
 42
0.149071
 10
51.5
 20
18.0
 10
53.125
 20
18.0
 10
53.125
 20
17.0
 10
51.5
 20
17.0
 42
0.149071
 10
50.75
 20
16.625
 42
0.185695
 10
50.5
 20
16.0
 10
50.5
 20
14.375
 10
49.5
 20
14.375
 10
49.5
 20
16.0
 42
0.185695
 10
49.25
 20
16.625
 42
0.149071
 10
48.5
 20
17.0
 10
46.875
 20
17.0
  0
LWPOLYLINE
  5
23F
100
AcDbEntity
  8
0
  6
CONTINUOUS
 62
     7
100
AcDbPolyline
 90
        2
 70
     1
 10
45.0
 20
17.5
 42
-1.0
 10
55.0
 20
17.5
 42
-1.0
  0
LWPOLYLINE
  5
240
100
AcDbEntity
  8
0
  6
CONTINUOUS
 62
     7
100
AcDbPolyline
 90
       12
 70
     1
 10
48.0
 20
15.5
 10
48.875
 20
16.75
 42
0.333333
 10
48.875
 20
18.25
 10
48.0
 20
19.5
 10
49.25
 20
18.625
 42
0.333333
 10
50.75
 20
18.625
 10
52.0
 20
19.5
 10
51.125
 20
18.25
 42
0.333333
 10
51.125
 20
16.75
 10
52.0
 20
15.5
 10
50.75
 20
16.375
 42
0.333333
 10
49.25
 20
16.375
  0
LWPOLYLINE
  5
241
100
AcDbEntity
  8
0
  6
DOT
 62
     7
100
AcDbPolyline
 90
        2
 70
     1
 10
47.5
 20
17.5
 42
-1.0
 10
52.5
 20
17.5
 42
-1.0
  0
LWPOLYLINE
  5
242
100
AcDbEntity
  8
0
  6
DOT
 62
     7
100
AcDbPolyline
 90
        2
 70
     1
 10
48.25
 20
17.5
 42
-1.0
 10
51.75
 20
17.5
 42
-1.0
  0
LWPOLYLINE
  5
243
100
AcDbEntity
  8
0
  6
CONTINUOUS
 62
     7
100
AcDbPolyline
 90
        2
 70
     1
 10
73.25
 20
17.5
 42
-1.0
 10
76.75
 20
17.5
 42
-1.0
  0
ARC
  5
244
100
AcDbEntity
  8
0
  6
CONTINUOUS
 62
     7
100
AcDbCircle
 10
75.0
 20
17.5
 30
0.0
 40
3.75
100
AcDbArc
 50
0.0
 51
180.0
  0
ARC
  5
245
100
AcDbEntity
  8
0
  6
CONTINUOUS
 62
     7
100
AcDbCircle
 10
75.0
 20
17.5
 30
0.0
 40
3.75
100
AcDbArc
 50
180.0
 51
0.0
  0
LWPOLYLINE
  5
246
100
AcDbEntity
  8
0
  6
CONTINUOUS
 62
     7
100
AcDbPolyline
 90
        6
 70
     1
 10
75.0
 20
21.83
 10
71.25
 20
19.665
 10
71.25
 20
15.335
 10
75.0
 20
13.17
 10
78.75
 20
15.335
 10
78.75
 20
19.665
  0
LWPOLYLINE
  5
247
100
AcDbEntity
  8
0
  6
CONTINUOUS
 62
     7
100
AcDbPolyline
 90
        4
 70
     1
 10
76.767767
 20
19.267767
 42
-0.895043
 10
73.585786
 20
15.37868
 42
0.895043
 10
76.767767
 20
19.267767
 42
0.895043
 10
72.87868
 20
16.085786
 42
-0.895043
  0
LWPOLYLINE
  5
248
100
AcDbEntity
  8
0
  6
CONTINUOUS
 62
     7
100
AcDbPolyline
 90
        2
 70
     1
 10
91.5
 20
27.5
 42
-1.0
 10
83.5
 20
27.5
 42
-1.0
  0
LWPOLYLINE
  5
249
100
AcDbEntity
  8
0
  6
CONTINUOUS
 62
     7
100
AcDbPolyline
 90
        6
 70
     1
 10
87.5
 20
29.935625
 10
85.390625
 20
28.717812
 10
85.390625
 20
26.282187
 10
87.5
 20
25.064375
 10
89.609375
 20
26.282187
 10
89.609375
 20
28.717812
  0
LWPOLYLINE
  5
24A
100
AcDbEntity
  8
0
  6
CONTINUOUS
 62
     7
100
AcDbPolyline
 90
        2
 70
     1
 10
90.88
 20
27.5
 42
1.000393
 10
84.12
 20
27.5
 42
1.000393
  0
LWPOLYLINE
  5
24B
100
AcDbEntity
  8
0
  6
DOT
 62
     7
100
AcDbPolyline
 90
        2
 70
     1
 10
85.0
 20
27.5
 42
-1.0
 10
90.0
 20
27.5
 42
-1.0
  0
LWPOLYLINE
  5
24C
100
AcDbEntity
  8
0
  6
DOT
 62
     7
100
AcDbPolyline
 90
        2
 70
     1
 10
85.75
 20
27.5
 42
-1.0
 10
89.25
 20
27.5
 42
-1.0
  0
ENDBLK
  5
24D
100
AcDbEntity
  8
0
100
AcDbBlockEnd
  0
BLOCK
  5
24F
100
AcDbEntity
  8
0
100
AcDbBlockBegin
  2
MASTER_48
 70
     0
 10
0.0
 20
0.0
 30
0.0
  3
MASTER_48
  1

  0
LWPOLYLINE
  5
250
100
AcDbEntity
  8
0
  6
CONTINUOUS
 62
     7
100
AcDbPolyline
 90
        6
 70
     1
 10
51.781089
 20
14.0
 10
45.718911
 20
14.0
 10
42.687822
 20
8.75
 10
45.718911
 20
3.5
 10
51.781089
 20
3.5
 10
54.812178
 20
8.75
  0
LWPOLYLINE
  5
251
100
AcDbEntity
  8
0
  6
CONTINUOUS
 62
     7
100
AcDbPolyline
 90
        2
 70
     1
 10
25.75
 20
8.75
 42
-1.0
 10
34.75
 20
8.75
 42
-1.0
  0
LWPOLYLINE
  5
252
100
AcDbEntity
  8
0
  6
CONTINUOUS
 62
     7
100
AcDbPolyline
 90
        6
 70
     1
 10
32.703739
 20
13.0
 10
27.796261
 20
13.0
 10
25.342523
 20
8.75
 10
27.796261
 20
4.5
 10
32.703739
 20
4.5
 10
35.157477
 20
8.75
  0
LWPOLYLINE
  5
253
100
AcDbEntity
  8
0
  6
CONTINUOUS
 62
     7
100
AcDbPolyline
 90
        2
 70
     1
 10
27.5
 20
8.75
 42
-1.0
 10
33.0
 20
8.75
 42
-1.0
  0
LWPOLYLINE
  5
254
100
AcDbEntity
  8
0
  6
CONTINUOUS
 62
     7
100
AcDbPolyline
 90
        2
 70
     1
 10
43.5
 20
8.75
 42
-1.0
 10
54.0
 20
8.75
 42
-1.0
  0
LWPOLYLINE
  5
255
100
AcDbEntity
  8
0
  6
CONTINUOUS
 62
     7
100
AcDbPolyline
 90
        2
 70
     1
 10
45.5
 20
8.75
 42
-1.0
 10
52.0
 20
8.75
 42
-1.0
  0
LWPOLYLINE
  5
256
100
AcDbEntity
  8
0
  6
CONTINUOUS
 62
     7
100
AcDbPolyline
 90
        6
 70
     1
 10
74.147114
 20
15.5
 10
66.352886
 20
15.5
 10
62.455771
 20
8.75
 10
66.352886
 20
2.0
 10
74.147114
 20
2.0
 10
78.044229
 20
8.75
  0
LWPOLYLINE
  5
257
100
AcDbEntity
  8
0
  6
CONTINUOUS
 62
     7
100
AcDbPolyline
 90
        2
 70
     1
 10
63.25
 20
8.75
 42
-1.0
 10
77.25
 20
8.75
 42
-1.0
  0
LWPOLYLINE
  5
258
100
AcDbEntity
  8
0
  6
CONTINUOUS
 62
     7
100
AcDbPolyline
 90
        2
 70
     1
 10
66.0
 20
8.75
 42
-1.0
 10
74.5
 20
8.75
 42
-1.0
  0
LWPOLYLINE
  5
259
100
AcDbEntity
  8
0
  6
CONTINUOUS
 62
     7
100
AcDbPolyline
 90
        2
 70
     1
 10
11.0
 20
8.75
 42
-1.0
 10
19.5
 20
8.75
 42
-1.0
  0
LWPOLYLINE
  5
25A
100
AcDbEntity
  8
0
  6
CONTINUOUS
 62
     7
100
AcDbPolyline
 90
        6
 70
     1
 10
17.415063
 20
12.5
 10
13.084936
 20
12.5
 10
10.919873
 20
8.75
 10
13.084936
 20
5.0
 10
17.415063
 20
5.0
 10
19.580127
 20
8.75
  0
LWPOLYLINE
  5
25B
100
AcDbEntity
  8
0
  6
CONTINUOUS
 62
     7
100
AcDbPolyline
 90
        2
 70
     1
 10
13.0
 20
8.75
 42
-1.0
 10
17.5
 20
8.75
 42
-1.0
  0
LWPOLYLINE
  5
25C
100
AcDbEntity
  8
0
  6
CONTINUOUS
 62
     7
100
AcDbPolyline
 90
        2
 70
     1
 10
0.0
 20
8.75
 42
-1.0
 10
5.5
 20
8.75
 42
-1.0
  0
LWPOLYLINE
  5
25D
100
AcDbEntity
  8
0
  6
CONTINUOUS
 62
     7
100
AcDbPolyline
 90
        6
 70
     1
 10
4.337713
 20
11.5
 10
1.162287
 20
11.5
 10
-0.425426
 20
8.75
 10
1.162287
 20
6.0
 10
4.337713
 20
6.0
 10
5.925426
 20
8.75
  0
LWPOLYLINE
  5
25E
100
AcDbEntity
  8
0
  6
CONTINUOUS
 62
     7
100
AcDbPolyline
 90
        2
 70
     1
 10
1.0
 20
8.75
 42
-1.0
 10
4.5
 20
8.75
 42
-1.0
  0
LWPOLYLINE
  5
25F
100
AcDbEntity
  8
0
  6
CONTINUOUS
 62
     7
100
AcDbPolyline
 90
        6
 70
     1
 10
95.801815
 20
17.5
 10
85.698185
 20
17.5
 10
80.64637
 20
8.75
 10
85.698185
 20
0.0
 10
95.801815
 20
0.0
 10
100.85363
 20
8.75
  0
LWPOLYLINE
  5
260
100
AcDbEntity
  8
0
  6
CONTINUOUS
 62
     7
100
AcDbPolyline
 90
        2
 70
     1
 10
82.5
 20
8.75
 42
-1.0
 10
99.0
 20
8.75
 42
-1.0
  0
LWPOLYLINE
  5
261
100
AcDbEntity
  8
0
  6
CONTINUOUS
 62
     7
100
AcDbPolyline
 90
        2
 70
     1
 10
85.5
 20
8.75
 42
-1.0
 10
96.0
 20
8.75
 42
-1.0
  0
ENDBLK
  5
262
100
AcDbEntity
  8
0
100
AcDbBlockEnd
  0
BLOCK
  5
264
100
AcDbEntity
  8
0
100
AcDbBlockBegin
  2
SUBTITLE
 70
     0
 10
0.0
 20
0.0
 30
0.0
  3
SUBTITLE
  1

  0
MTEXT
  5
265
100
AcDbEntity
  8
0
100
AcDbMText
 10
1.411111
 20
4.0
 30
0.0
 40
7.19123
 41
245.0
 71
     4
 72
     5
  1
\C7;\fArial|b1|i0|;\H7.1912296146154;SUBTITLE
  0
ENDBLK
  5
266
100
AcDbEntity
  8
0
100
AcDbBlockEnd
  0
BLOCK
  5
268
100
AcDbEntity
  8
0
100
AcDbBlockBegin
  2
RAHMEN
 70
     0
 10
0.0
 20
0.0
 30
0.0
  3
RAHMEN
  1

  0
LWPOLYLINE
  5
269
100
AcDbEntity
  8
0
  6
CONTINUOUS
 62
     6
100
AcDbPolyline
 90
        4
 70
     1
 10
12.5
 20
12.5
 10
730.0
 20
12.5
 10
730.0
 20
537.221157
 10
12.5
 20
537.221157
  0
LINE
  5
26A
100
AcDbEntity
  8
0
  6
CONTINUOUS
 62
     7
100
AcDbLine
 10
111.5625
 20
524.721157
 30
0.0
 11
111.5625
 21
537.221157
 31
0.0
  0
LINE
  5
26B
100
AcDbEntity
  8
0
  6
CONTINUOUS
 62
     7
100
AcDbLine
 10
198.125
 20
524.721157
 30
0.0
 11
198.125
 21
537.221157
 31
0.0
  0
LINE
  5
26C
100
AcDbEntity
  8
0
  6
CONTINUOUS
 62
     7
100
AcDbLine
 10
284.6875
 20
524.721157
 30
0.0
 11
284.6875
 21
537.221157
 31
0.0
  0
LINE
  5
26D
100
AcDbEntity
  8
0
  6
CONTINUOUS
 62
     7
100
AcDbLine
 10
371.25
 20
524.721157
 30
0.0
 11
371.25
 21
537.221157
 31
0.0
  0
LINE
  5
26E
100
AcDbEntity
  8
0
  6
CONTINUOUS
 62
     7
100
AcDbLine
 10
457.8125
 20
524.721157
 30
0.0
 11
457.8125
 21
537.221157
 31
0.0
  0
LINE
  5
26F
100
AcDbEntity
  8
0
  6
CONTINUOUS
 62
     7
100
AcDbLine
 10
544.375
 20
524.721157
 30
0.0
 11
544.375
 21
537.221157
 31
0.0
  0
LINE
  5
270
100
AcDbEntity
  8
0
  6
CONTINUOUS
 62
     7
100
AcDbLine
 10
630.9375
 20
524.721157
 30
0.0
 11
630.9375
 21
537.221157
 31
0.0
  0
LINE
  5
271
100
AcDbEntity
  8
0
  6
CONTINUOUS
 62
     7
100
AcDbLine
 10
111.5625
 20
25.0
 30
0.0
 11
111.5625
 21
12.5
 31
0.0
  0
LINE
  5
272
100
AcDbEntity
  8
0
  6
CONTINUOUS
 62
     7
100
AcDbLine
 10
198.125
 20
25.0
 30
0.0
 11
198.125
 21
12.5
 31
0.0
  0
LINE
  5
273
100
AcDbEntity
  8
0
  6
CONTINUOUS
 62
     7
100
AcDbLine
 10
284.6875
 20
25.0
 30
0.0
 11
284.6875
 21
12.5
 31
0.0
  0
LINE
  5
274
100
AcDbEntity
  8
0
  6
CONTINUOUS
 62
     7
100
AcDbLine
 10
371.25
 20
25.0
 30
0.0
 11
371.25
 21
12.5
 31
0.0
  0
LINE
  5
275
100
AcDbEntity
  8
0
  6
CONTINUOUS
 62
     7
100
AcDbLine
 10
457.8125
 20
25.0
 30
0.0
 11
457.8125
 21
12.5
 31
0.0
  0
LINE
  5
276
100
AcDbEntity
  8
0
  6
CONTINUOUS
 62
     7
100
AcDbLine
 10
544.375
 20
25.0
 30
0.0
 11
544.375
 21
12.5
 31
0.0
  0
LINE
  5
277
100
AcDbEntity
  8
0
  6
CONTINUOUS
 62
     7
100
AcDbLine
 10
630.9375
 20
25.0
 30
0.0
 11
630.9375
 21
12.5
 31
0.0
  0
LINE
  5
278
100
AcDbEntity
  8
0
  6
CONTINUOUS
 62
     7
100
AcDbLine
 10
25.0
 20
462.256013
 30
0.0
 11
12.5
 21
462.256013
 31
0.0
  0
LINE
  5
279
100
AcDbEntity
  8
0
  6
CONTINUOUS
 62
     7
100
AcDbLine
 10
25.0
 20
399.790868
 30
0.0
 11
12.5
 21
399.790868
 31
0.0
  0
LINE
  5
27A
100
AcDbEntity
  8
0
  6
CONTINUOUS
 62
     7
100
AcDbLine
 10
25.0
 20
337.325723
 30
0.0
 11
12.5
 21
337.325723
 31
0.0
  0
LINE
  5
27B
100
AcDbEntity
  8
0
  6
CONTINUOUS
 62
     7
100
AcDbLine
 10
25.0
 20
274.860579
 30
0.0
 11
12.5
 21
274.860579
 31
0.0
  0
LINE
  5
27C
100
AcDbEntity
  8
0
  6
CONTINUOUS
 62
     7
100
AcDbLine
 10
25.0
 20
212.395434
 30
0.0
 11
12.5
 21
212.395434
 31
0.0
  0
LINE
  5
27D
100
AcDbEntity
  8
0
  6
CONTINUOUS
 62
     7
100
AcDbLine
 10
25.0
 20
149.930289
 30
0.0
 11
12.5
 21
149.930289
 31
0.0
  0
LINE
  5
27E
100
AcDbEntity
  8
0
  6
CONTINUOUS
 62
     7
100
AcDbLine
 10
25.0
 20
87.465145
 30
0.0
 11
12.5
 21
87.465145
 31
0.0
  0
LINE
  5
27F
100
AcDbEntity
  8
0
  6
CONTINUOUS
 62
     7
100
AcDbLine
 10
717.5
 20
462.256013
 30
0.0
 11
730.0
 21
462.256013
 31
0.0
  0
LINE
  5
280
100
AcDbEntity
  8
0
  6
CONTINUOUS
 62
     7
100
AcDbLine
 10
717.5
 20
399.790868
 30
0.0
 11
730.0
 21
399.790868
 31
0.0
  0
LINE
  5
281
100
AcDbEntity
  8
0
  6
CONTINUOUS
 62
     7
100
AcDbLine
 10
717.5
 20
337.325723
 30
0.0
 11
730.0
 21
337.325723
 31
0.0
  0
LINE
  5
282
100
AcDbEntity
  8
0
  6
CONTINUOUS
 62
     7
100
AcDbLine
 10
717.5
 20
274.860579
 30
0.0
 11
730.0
 21
274.860579
 31
0.0
  0
LINE
  5
283
100
AcDbEntity
  8
0
  6
CONTINUOUS
 62
     7
100
AcDbLine
 10
717.5
 20
212.395434
 30
0.0
 11
730.0
 21
212.395434
 31
0.0
  0
LINE
  5
284
100
AcDbEntity
  8
0
  6
CONTINUOUS
 62
     7
100
AcDbLine
 10
717.5
 20
149.930289
 30
0.0
 11
730.0
 21
149.930289
 31
0.0
  0
LINE
  5
285
100
AcDbEntity
  8
0
  6
CONTINUOUS
 62
     7
100
AcDbLine
 10
717.5
 20
87.465145
 30
0.0
 11
730.0
 21
87.465145
 31
0.0
  0
LWPOLYLINE
  5
286
100
AcDbEntity
  8
0
  6
CONTINUOUS
 62
     7
100
AcDbPolyline
 90
        4
 70
     1
 10
25.0
 20
524.721157
 10
25.0
 20
25.0
 10
717.5
 20
25.0
 10
717.5
 20
524.721157
  0
MTEXT
  5
287
100
AcDbEntity
  8
0
100
AcDbMText
 10
723.75
 20
534.89011
 30
0.0
 40
6.164012
 41
12.5
 71
     2
 72
     5
  1
\C7;\fArial|b0|i0|;\H6.1640118710697;H\PG\PF\PE\PD\PC\PB\PA\P
  0
MTEXT
  5
288
100
AcDbEntity
  8
0
100
AcDbMText
 10
12.5
 20
18.75
 30
0.0
 40
6.164012
 41
717.5
 71
     4
 72
     5
  1
\C7;\fArial|b0|i0|;\H6.1640118710697;87654321
  0
MTEXT
  5
289
100
AcDbEntity
  8
0
100
AcDbMText
 10
18.75
 20
534.89011
 30
0.0
 40
6.164012
 41
12.5
 71
     2
 72
     5
  1
\C7;\fArial|b0|i0|;\H6.1640118710697;H\PG\PF\PE\PD\PC\PB\PA\P
  0
MTEXT
  5
28A
100
AcDbEntity
  8
0
100
AcDbMText
 10
12.5
 20
530.971157
 30
0.0
 40
6.164012
 41
717.5
 71
     4
 72
     5
  1
\C7;\fArial|b0|i0|;\H6.1640118710697;87654321
  0
ENDBLK
  5
28B
100
AcDbEntity
  8
0
100
AcDbBlockEnd
  0
BLOCK
  5
28D
100
AcDbEntity
  8
0
100
AcDbBlockBegin
  2
MASTER_51
 70
     0
 10
0.0
 20
0.0
 30
0.0
  3
MASTER_51
  1

  0
LINE
  5
28E
100
AcDbEntity
  8
0
  6
DASHDOT
 62
     7
100
AcDbLine
 10
0.0
 20
12.7
 30
0.0
 11
86.0
 21
12.7
 31
0.0
  0
ENDBLK
  5
28F
100
AcDbEntity
  8
0
100
AcDbBlockEnd
  0
BLOCK
  5
291
100
AcDbEntity
  8
0
100
AcDbBlockBegin
  2
TITLE
 70
     0
 10
0.0
 20
0.0
 30
0.0
  3
TITLE
  1

  0
MTEXT
  5
292
100
AcDbEntity
  8
0
100
AcDbMText
 10
1.411111
 20
5.0
 30
0.0
 40
9.245947
 41
147.5
 71
     4
 72
     5
  1
\C7;\fArial|b1|i0|;\H9.245947265625;TITLE
  0
ENDBLK
  5
293
100
AcDbEntity
  8
0
100
AcDbBlockEnd
  0
BLOCK
  5
295
100
AcDbEntity
  8
0
100
AcDbBlockBegin
  2
DESCRIPTION
 70
     0
 10
0.0
 20
0.0
 30
0.0
  3
DESCRIPTION
  1

  0
MTEXT
  5
296
100
AcDbEntity
  8
0
100
AcDbMText
 10
1.411111
 20
2.916667
 30
0.0
 40
5.136653
 41
82.0
 71
     4
 72
     5
  1
\C7;\fArial|b1|i0|;\H5.1366530455649;DESCRIPTION
  0
ENDBLK
  5
297
100
AcDbEntity
  8
0
100
AcDbBlockEnd
  0
BLOCK
  5
299
100
AcDbEntity
  8
0
100
AcDbBlockBegin
  2
MASTER_54
 70
     0
 10
0.0
 20
0.0
 30
0.0
  3
MASTER_54
  1

  0
LWPOLYLINE
  5
29A
100
AcDbEntity
  8
BEMA\U+00DFUNGEN
  6
CONTINUOUS
100
AcDbPolyline
 90
        2
 70
     1
 10
26.5
 20
1.583333
 10
26.5
 20
11.641667
  0
LWPOLYLINE
  5
29B
100
AcDbEntity
  8
BEMA\U+00DFUNGEN
  6
CONTINUOUS
100
AcDbPolyline
 90
        2
 70
     1
 10
0.0
 20
1.583333
 10
0.0
 20
11.641667
  0
LINE
  5
29C
100
AcDbEntity
  8
BEMA\U+00DFUNGEN
  6
CONTINUOUS
100
AcDbLine
 10
13.25
 20
3.7
 30
0.0
 11
26.5
 21
3.7
 31
0.0
  0
LINE
  5
29D
100
AcDbEntity
  8
BEMA\U+00DFUNGEN
  6
CONTINUOUS
100
AcDbLine
 10
13.25
 20
3.7
 30
0.0
 11
0.0
 21
3.7
 31
0.0
  0
MTEXT
  5
29E
100
AcDbEntity
  8
BEMA\U+00DFUNGEN
100
AcDbMText
 10
11.5
 20
5.499782
 30
0.0
 40
3.081935
 41
9.676842
 71
     5
 72
     5
  1
\C7;\fArial|b0|i0|;\H3.0819353945553;26,5\P0mm
  0
ENDBLK
  5
29F
100
AcDbEntity
  8
0
100
AcDbBlockEnd
  0
BLOCK
  5
2A1
100
AcDbEntity
  8
0
100
AcDbBlockBegin
  2
MASTER_55
 70
     2
 10
0.0
 20
0.0
 30
0.0
  3
MASTER_55
  1

  0
ATTDEF
  5
2A2
100
AcDbEntity
  8
0
100
AcDbText
 10
0.0
 20
12.7
 30
0.0
 40
0.2
  1
0.00
100
AcDbAttributeDefinition
  3
Genauigkeit
  2
LPREC
 70
     0
  0
ATTDEF
  5
2A3
100
AcDbEntity
  8
0
100
AcDbText
 10
0.0
 20
12.7
 30
0.0
 40
0.2
  1
Zeichenblatteinheiten verwenden
100
AcDbAttributeDefinition
  3
Einheiten
  2
LUNITS
 70
     0
  0
ATTDEF
  5
2A4
100
AcDbEntity
  8
0
100
AcDbText
 10
0.0
 20
12.7
 30
0.0
 40
0.2
  1
Ma\U+00DFeinheiten anzeigen
100
AcDbAttributeDefinition
  3
Ma\U+00DFeinheitenanzeige
  2
SHOWUNITS
 70
     0
  0
ATTDEF
  5
2A5
100
AcDbEntity
  8
0
100
AcDbText
 10
0.0
 20
12.7
 30
0.0
 40
0.2
  1
Beide
100
AcDbAttributeDefinition
  3
Erweiterungslinien
  2
EXTENSIONS
 70
     0
  0
ATTDEF
  5
2A6
100
AcDbEntity
  8
0
100
AcDbText
 10
0.0
 20
12.7
 30
0.0
 40
0.2
  1
0
100
AcDbAttributeDefinition
  3
Winkel
  2
ANGLE
 70
     0
  0
LWPOLYLINE
  5
2A7
100
AcDbEntity
  8
BEMA\U+00DFUNGEN
  6
CONTINUOUS
100
AcDbPolyline
 90
        2
 70
     1
 10
0.0
 20
22.522222
 10
0.0
 20
14.111111
  0
LWPOLYLINE
  5
2A8
100
AcDbEntity
  8
BEMA\U+00DFUNGEN
  6
CONTINUOUS
100
AcDbPolyline
 90
        2
 70
     1
 10
25.0
 20
22.522222
 10
25.0
 20
14.111111
  0
LINE
  5
2A9
100
AcDbEntity
  8
BEMA\U+00DFUNGEN
  6
CONTINUOUS
100
AcDbLine
 10
12.5
 20
19.7
 30
0.0
 11
0.0
 21
19.7
 31
0.0
  0
LINE
  5
2AA
100
AcDbEntity
  8
BEMA\U+00DFUNGEN
  6
CONTINUOUS
100
AcDbLine
 10
12.5
 20
19.7
 30
0.0
 11
25.0
 21
19.7
 31
0.0
  0
MTEXT
  5
2AB
100
AcDbEntity
  8
BEMA\U+00DFUNGEN
100
AcDbMText
 10
15.0
 20
23.099517
 30
0.0
 40
4.109294
 41
12.814054
 71
     5
 72
     5
  1
\C7;\fArial|b0|i0|;\H4.1092942200601;25,0\P0mm
  0
ENDBLK
  5
2AC
100
AcDbEntity
  8
0
100
AcDbBlockEnd
  0
BLOCK
  5
2AE
100
AcDbEntity
  8
0
100
AcDbBlockBegin
  2
MASTER_56
 70
     2
 10
0.0
 20
0.0
 30
0.0
  3
MASTER_56
  1

  0
LWPOLYLINE
  5
2AF
100
AcDbEntity
  8
0
  6
CONTINUOUS
 62
     7
100
AcDbPolyline
 90
        4
 70
     1
 10
0.0
 20
0.0
 10
5.5
 20
0.0
 10
5.5
 20
4.0
 10
0.0
 20
4.0
  0
LWPOLYLINE
  5
2B1
100
AcDbEntity
  8
0
  6
DASHED
 62
     7
100
AcDbPolyline
 90
        4
 70
     1
 10
0.0
 20
0.375
 10
5.5
 20
0.375
 10
5.5
 20
3.625
 10
0.0
 20
3.625
  0
ENDBLK
  5
2B2
100
AcDbEntity
  8
0
100
AcDbBlockEnd
  0
BLOCK
  5
2B4
100
AcDbEntity
  8
0
100
AcDbBlockBegin
  2
MASTER_57
 70
     0
 10
0.0
 20
0.0
 30
0.0
  3
MASTER_57
  1

  0
LWPOLYLINE
  5
2B5
100
AcDbEntity
  8
0
  6
CONTINUOUS
 62
     7
100
AcDbPolyline
 90
        3
 70
     1
 10
0.0
 20
2.5
 10
2.0
 20
2.5
 10
2.0
 20
0.05051
 42
2.805884
  0
CIRCLE
  5
2B6
100
AcDbEntity
  8
0
  6
CONTINUOUS
 62
     7
100
AcDbCircle
 10
2.5
 20
2.5
 30
0.0
 40
2.25
  0
CIRCLE
  5
2B7
100
AcDbEntity
  8
0
  6
CONTINUOUS
 62
     7
100
AcDbCircle
 10
2.5
 20
2.5
 30
0.0
 40
2.0
  0
ENDBLK
  5
2B8
100
AcDbEntity
  8
0
100
AcDbBlockEnd
  0
BLOCK
  5
2BA
100
AcDbEntity
  8
0
100
AcDbBlockBegin
  2
SCREWS
 70
     0
 10
0.0
 20
0.0
 30
0.0
  3
SCREWS
  1

  0
LWPOLYLINE
  5
2BB
100
AcDbEntity
  8
0
  6
CONTINUOUS
 62
     7
100
AcDbPolyline
 90
        4
 70
     1
 10
62.5
 20
-2.5
 10
63.5
 20
-2.5
 10
63.5
 20
7.5
 10
62.5
 20
7.5
  0
LINE
  5
2BC
100
AcDbEntity
  8
0
  6
DOT
 62
     7
100
AcDbLine
 10
62.5
 20
-0.125
 30
0.0
 11
63.5
 21
-0.125
 31
0.0
  0
LINE
  5
2BD
100
AcDbEntity
  8
0
  6
DOT
 62
     7
100
AcDbLine
 10
62.5
 20
5.125
 30
0.0
 11
63.5
 21
5.125
 31
0.0
  0
LWPOLYLINE
  5
2BE
100
AcDbEntity
  8
0
  6
CONTINUOUS
 62
     7
100
AcDbPolyline
 90
        6
 70
     1
 10
53.0
 20
-2.5
 10
53.5
 20
-2.5
 10
53.5
 20
7.5
 10
53.0
 20
7.5
 10
52.5
 20
6.386956
 10
52.5
 20
-1.386956
  0
LINE
  5
2BF
100
AcDbEntity
  8
0
  6
CONTINUOUS
 62
     7
100
AcDbLine
 10
53.0
 20
-2.5
 30
0.0
 11
53.0
 21
7.5
 31
0.0
  0
LINE
  5
2C0
100
AcDbEntity
  8
0
  6
DOT
 62
     7
100
AcDbLine
 10
52.5
 20
-0.125
 30
0.0
 11
53.5
 21
-0.125
 31
0.0
  0
LINE
  5
2C1
100
AcDbEntity
  8
0
  6
DOT
 62
     7
100
AcDbLine
 10
52.5
 20
5.125
 30
0.0
 11
53.5
 21
5.125
 31
0.0
  0
LWPOLYLINE
  5
2C2
100
AcDbEntity
  8
0
  6
CONTINUOUS
 62
     7
100
AcDbPolyline
 90
        2
 70
     1
 10
72.5
 20
2.5
 42
1.0
 10
82.5
 20
2.5
 42
1.0
  0
LWPOLYLINE
  5
2C3
100
AcDbEntity
  8
0
  6
CONTINUOUS
 62
     7
100
AcDbPolyline
 90
        2
 70
     1
 10
74.875
 20
2.5
 42
1.0
 10
80.125
 20
2.5
 42
1.0
  0
LWPOLYLINE
  5
2C4
100
AcDbEntity
  8
0
  6
CONTINUOUS
 62
     7
100
AcDbPolyline
 90
        2
 70
     1
 10
32.5
 20
2.5
 42
1.0
 10
42.5
 20
2.5
 42
1.0
  0
LWPOLYLINE
  5
2C5
100
AcDbEntity
  8
0
  6
CONTINUOUS
 62
     7
100
AcDbPolyline
 90
        2
 70
     1
 10
34.875
 20
2.5
 42
1.0
 10
40.125
 20
2.5
 42
1.0
  0
LWPOLYLINE
  5
2C6
100
AcDbEntity
  8
0
  6
CONTINUOUS
 62
     7
100
AcDbPolyline
 90
        2
 70
     1
 10
33.4
 20
2.5
 42
1.0
 10
41.6
 20
2.5
 42
1.0
  0
LINE
  5
2C7
100
AcDbEntity
  8
0
  6
CONTINUOUS
 62
     7
100
AcDbLine
 10
65.875
 20
28.125
 30
0.0
 11
69.125
 21
28.125
 31
0.0
  0
LINE
  5
2C8
100
AcDbEntity
  8
0
  6
CONTINUOUS
 62
     7
100
AcDbLine
 10
65.875
 20
31.875
 30
0.0
 11
69.125
 21
31.875
 31
0.0
  0
LWPOLYLINE
  5
2C9
100
AcDbEntity
  8
0
  6
CONTINUOUS
 62
     7
100
AcDbPolyline
 90
        8
 70
     0
 10
65.875
 20
25.4
 42
-0.277858
 10
65.875
 20
28.125
 42
-0.2
 10
65.875
 20
31.875
 42
-0.277858
 10
65.875
 20
34.6
 10
69.125
 20
34.6
 42
-0.277858
 10
69.125
 20
31.875
 42
-0.2
 10
69.125
 20
28.125
 42
-0.277858
 10
69.125
 20
25.4
  0
LWPOLYLINE
  5
2CA
100
AcDbEntity
  8
0
  6
CONTINUOUS
 62
     7
100
AcDbPolyline
 90
        8
 70
     1
 10
65.875
 20
25.4
 10
65.5
 20
25.95
 10
65.5
 20
34.05
 10
65.875
 20
34.6
 10
69.125
 20
34.6
 10
69.5
 20
34.05
 42
-0.925926
 10
69.5
 20
25.95
 10
69.125
 20
25.4
  0
LINE
  5
2CB
100
AcDbEntity
  8
0
  6
DOT
 62
     7
100
AcDbLine
 10
69.5
 20
32.5
 30
0.0
 11
65.5
 21
32.5
 31
0.0
  0
LINE
  5
2CC
100
AcDbEntity
  8
0
  6
DOT
 62
     7
100
AcDbLine
 10
69.5
 20
27.5
 30
0.0
 11
65.5
 21
27.5
 31
0.0
  0
ARC
  5
2CD
100
AcDbEntity
  8
0
  6
DOT
 62
     7
100
AcDbCircle
 10
69.5
 20
30.0
 30
0.0
 40
2.5
100
AcDbArc
 50
270.0
 51
90.0
  0
ARC
  5
2CE
100
AcDbEntity
  8
0
  6
CONTINUOUS
 62
     7
100
AcDbCircle
 10
35.0
 20
30.0
 30
0.0
 40
4.0
100
AcDbArc
 50
0.0
 51
180.0
  0
ARC
  5
2CF
100
AcDbEntity
  8
0
  6
CONTINUOUS
 62
     7
100
AcDbCircle
 10
35.0
 20
30.0
 30
0.0
 40
4.0
100
AcDbArc
 50
180.0
 51
0.0
  0
LWPOLYLINE
  5
2D0
100
AcDbEntity
  8
0
  6
CONTINUOUS
 62
     7
100
AcDbPolyline
 90
        6
 70
     1
 10
31.0
 20
27.690599
 10
31.0
 20
32.309401
 10
35.0
 20
34.618802
 10
39.0
 20
32.309401
 10
39.0
 20
27.690599
 10
35.0
 20
25.381198
  0
LWPOLYLINE
  5
2D1
100
AcDbEntity
  8
0
  6
DOT
 62
     7
100
AcDbPolyline
 90
        2
 70
     1
 10
32.5
 20
30.0
 42
-1.0
 10
37.5
 20
30.0
 42
-1.0
  0
LWPOLYLINE
  5
2D2
100
AcDbEntity
  8
0
  6
DOT
 62
     7
100
AcDbPolyline
 90
        2
 70
     1
 10
33.25
 20
30.0
 42
-1.0
 10
36.75
 20
30.0
 42
-1.0
  0
LINE
  5
2D3
100
AcDbEntity
  8
0
  6
CONTINUOUS
 62
     7
100
AcDbLine
 10
-0.458333
 20
32.3
 30
0.0
 11
2.5
 21
32.3
 31
0.0
  0
LINE
  5
2D4
100
AcDbEntity
  8
0
  6
CONTINUOUS
 62
     7
100
AcDbLine
 10
-0.458333
 20
27.7
 30
0.0
 11
2.5
 21
27.7
 31
0.0
  0
LWPOLYLINE
  5
2D5
100
AcDbEntity
  8
0
  6
CONTINUOUS
 62
     7
100
AcDbPolyline
 90
        4
 70
     0
 10
-0.458333
 20
34.6
 42
0.327345
 10
-0.458333
 20
32.3
 42
0.163043
 10
-0.458333
 20
27.7
 42
0.327345
 10
-0.458333
 20
25.4
  0
LWPOLYLINE
  5
2D6
100
AcDbEntity
  8
0
  6
CONTINUOUS
 62
     7
100
AcDbPolyline
 90
        6
 70
     1
 10
-0.458333
 20
34.6
 10
-0.833333
 20
34.05
 10
-0.833333
 20
25.95
 10
-0.458333
 20
25.4
 10
2.5
 20
25.4
 10
2.5
 20
34.6
  0
LINE
  5
2D7
100
AcDbEntity
  8
0
  6
CONTINUOUS
 62
     7
100
AcDbLine
 10
16.75
 20
32.5
 30
0.0
 11
16.75
 21
27.5
 31
0.0
  0
LINE
  5
2D8
100
AcDbEntity
  8
0
  6
CONTINUOUS
 62
     7
100
AcDbLine
 10
5.0
 20
32.5
 30
0.0
 11
5.0
 21
27.5
 31
0.0
  0
LWPOLYLINE
  5
2D9
100
AcDbEntity
  8
0
  6
CONTINUOUS
 62
     7
100
AcDbPolyline
 90
        6
 70
     1
 10
2.5
 20
32.5
 10
16.75
 20
32.5
 10
17.5
 20
31.75
 10
17.5
 20
28.25
 10
16.75
 20
27.5
 10
2.5
 20
27.5
  0
LWPOLYLINE
  5
2DA
100
AcDbEntity
  8
0
  6
CONTINUOUS
 62
     7
100
AcDbPolyline
 90
        3
 70
     0
 10
3.700962
 20
27.5
 10
5.0
 20
28.25
 10
17.5
 20
28.25
  0
LWPOLYLINE
  5
2DB
100
AcDbEntity
  8
0
  6
CONTINUOUS
 62
     7
100
AcDbPolyline
 90
        3
 70
     0
 10
3.700962
 20
32.5
 10
5.0
 20
31.75
 10
17.5
 20
31.75
  0
LINE
  5
2DC
100
AcDbEntity
  8
0
  6
CONTINUOUS
 62
     7
100
AcDbLine
 10
14.25
 20
20.0
 30
0.0
 11
14.25
 21
15.0
 31
0.0
  0
LINE
  5
2DD
100
AcDbEntity
  8
0
  6
CONTINUOUS
 62
     7
100
AcDbLine
 10
5.0
 20
20.0
 30
0.0
 11
5.0
 21
15.0
 31
0.0
  0
LWPOLYLINE
  5
2DE
100
AcDbEntity
  8
0
  6
CONTINUOUS
 62
     7
100
AcDbPolyline
 90
       12
 70
     1
 10
2.5
 20
20.0
 10
14.25
 20
20.0
 10
15.0
 20
19.25
 10
15.0
 20
15.75
 10
14.25
 20
15.0
 10
2.5
 20
15.0
 10
0.0
 20
12.5
 10
0.0
 20
16.875
 10
1.25
 20
16.875
 10
1.25
 20
18.125
 10
0.0
 20
18.125
 10
0.0
 20
22.5
  0
LINE
  5
2DF
100
AcDbEntity
  8
0
  6
CONTINUOUS
 62
     7
100
AcDbLine
 10
2.5
 20
15.0
 30
0.0
 11
2.5
 21
20.0
 31
0.0
  0
LWPOLYLINE
  5
2E0
100
AcDbEntity
  8
0
  6
CONTINUOUS
 62
     7
100
AcDbPolyline
 90
        3
 70
     0
 10
3.700962
 20
15.0
 10
5.0
 20
15.75
 10
15.0
 20
15.75
  0
LWPOLYLINE
  5
2E1
100
AcDbEntity
  8
0
  6
CONTINUOUS
 62
     7
100
AcDbPolyline
 90
        3
 70
     0
 10
3.700962
 20
20.0
 10
5.0
 20
19.25
 10
15.0
 20
19.25
  0
LWPOLYLINE
  5
2E2
100
AcDbEntity
  8
0
  6
CONTINUOUS
 62
     7
100
AcDbPolyline
 90
        6
 70
     1
 10
-1.875
 20
6.5
 10
-2.5
 20
5.875
 10
-2.5
 20
-0.875
 10
-1.875
 20
-1.5
 10
2.5
 20
-1.5
 10
2.5
 20
6.5
  0
LINE
  5
2E3
100
AcDbEntity
  8
0
  6
CONTINUOUS
 62
     7
100
AcDbLine
 10
-1.875
 20
6.5
 30
0.0
 11
-1.875
 21
-1.5
 31
0.0
  0
LINE
  5
2E4
100
AcDbEntity
  8
0
  6
CONTINUOUS
 62
     7
100
AcDbLine
 10
16.75
 20
5.0
 30
0.0
 11
16.75
 21
0.0
 31
0.0
  0
LINE
  5
2E5
100
AcDbEntity
  8
0
  6
CONTINUOUS
 62
     7
100
AcDbLine
 10
5.0
 20
5.0
 30
0.0
 11
5.0
 21
0.0
 31
0.0
  0
LWPOLYLINE
  5
2E6
100
AcDbEntity
  8
0
  6
CONTINUOUS
 62
     7
100
AcDbPolyline
 90
        6
 70
     1
 10
2.5
 20
5.0
 10
16.75
 20
5.0
 10
17.5
 20
4.25
 10
17.5
 20
0.75
 10
16.75
 20
0.0
 10
2.5
 20
0.0
  0
LWPOLYLINE
  5
2E7
100
AcDbEntity
  8
0
  6
CONTINUOUS
 62
     7
100
AcDbPolyline
 90
        3
 70
     0
 10
3.700962
 20
0.0
 10
5.0
 20
0.75
 10
17.5
 20
0.75
  0
LWPOLYLINE
  5
2E8
100
AcDbEntity
  8
0
  6
CONTINUOUS
 62
     7
100
AcDbPolyline
 90
        3
 70
     0
 10
3.700962
 20
5.0
 10
5.0
 20
4.25
 10
17.5
 20
4.25
  0
LWPOLYLINE
  5
2E9
100
AcDbEntity
  8
0
  6
DOT
 62
     7
100
AcDbPolyline
 90
        5
 70
     0
 10
-2.5
 20
5.0
 10
0.5
 20
5.0
 10
1.25
 20
2.5
 10
0.5
 20
0.0
 10
-2.5
 20
0.0
  0
LINE
  5
2EA
100
AcDbEntity
  8
0
  6
DOT
 62
     7
100
AcDbLine
 10
0.5
 20
5.0
 30
0.0
 11
0.5
 21
0.0
 31
0.0
  0
LINE
  5
2EB
100
AcDbEntity
  8
0
  6
DOT
 62
     7
100
AcDbLine
 10
-2.5
 20
3.6075
 30
0.0
 11
0.5
 21
3.6075
 31
0.0
  0
LINE
  5
2EC
100
AcDbEntity
  8
0
  6
DOT
 62
     7
100
AcDbLine
 10
-2.5
 20
1.3925
 30
0.0
 11
0.5
 21
1.3925
 31
0.0
  0
LINE
  5
2ED
100
AcDbEntity
  8
0
  6
CONTINUOUS
 62
     7
100
AcDbLine
 10
54.125
 20
27.7
 30
0.0
 11
50.5
 21
27.7
 31
0.0
  0
LINE
  5
2EE
100
AcDbEntity
  8
0
  6
CONTINUOUS
 62
     7
100
AcDbLine
 10
54.125
 20
32.3
 30
0.0
 11
50.5
 21
32.3
 31
0.0
  0
LWPOLYLINE
  5
2EF
100
AcDbEntity
  8
0
  6
CONTINUOUS
 62
     7
100
AcDbPolyline
 90
        4
 70
     0
 10
54.125
 20
25.4
 42
0.327345
 10
54.125
 20
27.7
 42
0.163043
 10
54.125
 20
32.3
 42
0.327345
 10
54.125
 20
34.6
  0
LWPOLYLINE
  5
2F0
100
AcDbEntity
  8
0
  6
CONTINUOUS
 62
     7
100
AcDbPolyline
 90
        6
 70
     1
 10
54.125
 20
25.4
 10
54.5
 20
25.95
 10
54.5
 20
34.05
 10
54.125
 20
34.6
 10
50.5
 20
34.6
 10
50.5
 20
25.4
  0
LINE
  5
2F1
100
AcDbEntity
  8
0
  6
DOT
 62
     7
100
AcDbLine
 10
50.5
 20
32.5
 30
0.0
 11
54.5
 21
32.5
 31
0.0
  0
LINE
  5
2F2
100
AcDbEntity
  8
0
  6
DOT
 62
     7
100
AcDbLine
 10
50.5
 20
27.5
 30
0.0
 11
54.5
 21
27.5
 31
0.0
  0
LINE
  5
2F3
100
AcDbEntity
  8
0
  6
CONTINUOUS
 62
     7
100
AcDbLine
 10
32.0
 20
17.542333
 30
0.0
 11
32.0
 21
20.0
 31
0.0
  0
LINE
  5
2F4
100
AcDbEntity
  8
0
  6
CONTINUOUS
 62
     7
100
AcDbLine
 10
32.0
 20
20.0
 30
0.0
 11
33.0
 21
20.0
 31
0.0
  0
LINE
  5
2F5
100
AcDbEntity
  8
0
  6
CONTINUOUS
 62
     7
100
AcDbLine
 10
33.0
 20
20.0
 30
0.0
 11
33.0
 21
17.542333
 31
0.0
  0
LINE
  5
2F6
100
AcDbEntity
  8
0
  6
CONTINUOUS
 62
     7
100
AcDbLine
 10
32.0
 20
12.457667
 30
0.0
 11
32.0
 21
10.0
 31
0.0
  0
LINE
  5
2F7
100
AcDbEntity
  8
0
  6
CONTINUOUS
 62
     7
100
AcDbLine
 10
32.0
 20
10.0
 30
0.0
 11
33.0
 21
10.0
 31
0.0
  0
LINE
  5
2F8
100
AcDbEntity
  8
0
  6
CONTINUOUS
 62
     7
100
AcDbLine
 10
33.0
 20
10.0
 30
0.0
 11
33.0
 21
12.457667
 31
0.0
  0
LWPOLYLINE
  5
2F9
100
AcDbEntity
  8
0
  6
CONTINUOUS
 62
     7
100
AcDbPolyline
 90
        4
 70
     1
 10
31.75
 20
14.18
 10
32.78
 20
15.16
 10
33.0
 20
20.0
 10
32.0
 20
20.0
  0
LWPOLYLINE
  5
2FA
100
AcDbEntity
  8
0
  6
CONTINUOUS
 62
     7
100
AcDbPolyline
 90
        4
 70
     1
 10
33.28
 20
14.85
 10
32.22
 20
13.7
 10
32.0
 20
10.0
 10
33.0
 20
10.0
  0
LINE
  5
2FB
100
AcDbEntity
  8
0
  6
DOT
 62
     7
100
AcDbLine
 10
32.0
 20
17.457667
 30
0.0
 11
32.0
 21
12.542333
 31
0.0
  0
LINE
  5
2FC
100
AcDbEntity
  8
0
  6
DOT
 62
     7
100
AcDbLine
 10
33.0
 20
17.457667
 30
0.0
 11
33.0
 21
12.542333
 31
0.0
  0
LINE
  5
2FD
100
AcDbEntity
  8
0
  6
DOT
 62
     7
100
AcDbLine
 10
32.0
 20
12.375
 30
0.0
 11
33.0
 21
12.375
 31
0.0
  0
LINE
  5
2FE
100
AcDbEntity
  8
0
  6
DOT
 62
     7
100
AcDbLine
 10
32.0
 20
17.625
 30
0.0
 11
33.0
 21
17.625
 31
0.0
  0
LWPOLYLINE
  5
2FF
100
AcDbEntity
  8
0
  6
CONTINUOUS
 62
     7
100
AcDbPolyline
 90
       20
 70
     1
 10
46.875
 20
18.0
 10
48.5
 20
18.0
 42
0.149071
 10
49.25
 20
18.375
 42
0.185695
 10
49.5
 20
19.0
 10
49.5
 20
20.625
 10
50.5
 20
20.625
 10
50.5
 20
19.0
 42
0.185695
 10
50.75
 20
18.375
 42
0.149071
 10
51.5
 20
18.0
 10
53.125
 20
18.0
 10
53.125
 20
17.0
 10
51.5
 20
17.0
 42
0.149071
 10
50.75
 20
16.625
 42
0.185695
 10
50.5
 20
16.0
 10
50.5
 20
14.375
 10
49.5
 20
14.375
 10
49.5
 20
16.0
 42
0.185695
 10
49.25
 20
16.625
 42
0.149071
 10
48.5
 20
17.0
 10
46.875
 20
17.0
  0
LWPOLYLINE
  5
300
100
AcDbEntity
  8
0
  6
CONTINUOUS
 62
     7
100
AcDbPolyline
 90
        2
 70
     1
 10
45.0
 20
17.5
 42
-1.0
 10
55.0
 20
17.5
 42
-1.0
  0
LWPOLYLINE
  5
301
100
AcDbEntity
  8
0
  6
CONTINUOUS
 62
     7
100
AcDbPolyline
 90
       12
 70
     1
 10
48.0
 20
15.5
 10
48.875
 20
16.75
 42
0.333333
 10
48.875
 20
18.25
 10
48.0
 20
19.5
 10
49.25
 20
18.625
 42
0.333333
 10
50.75
 20
18.625
 10
52.0
 20
19.5
 10
51.125
 20
18.25
 42
0.333333
 10
51.125
 20
16.75
 10
52.0
 20
15.5
 10
50.75
 20
16.375
 42
0.333333
 10
49.25
 20
16.375
  0
LWPOLYLINE
  5
302
100
AcDbEntity
  8
0
  6
DOT
 62
     7
100
AcDbPolyline
 90
        2
 70
     1
 10
47.5
 20
17.5
 42
-1.0
 10
52.5
 20
17.5
 42
-1.0
  0
LWPOLYLINE
  5
303
100
AcDbEntity
  8
0
  6
DOT
 62
     7
100
AcDbPolyline
 90
        2
 70
     1
 10
48.25
 20
17.5
 42
-1.0
 10
51.75
 20
17.5
 42
-1.0
  0
LWPOLYLINE
  5
304
100
AcDbEntity
  8
0
  6
CONTINUOUS
 62
     7
100
AcDbPolyline
 90
        2
 70
     1
 10
73.25
 20
17.5
 42
-1.0
 10
76.75
 20
17.5
 42
-1.0
  0
ARC
  5
305
100
AcDbEntity
  8
0
  6
CONTINUOUS
 62
     7
100
AcDbCircle
 10
75.0
 20
17.5
 30
0.0
 40
3.75
100
AcDbArc
 50
0.0
 51
180.0
  0
ARC
  5
306
100
AcDbEntity
  8
0
  6
CONTINUOUS
 62
     7
100
AcDbCircle
 10
75.0
 20
17.5
 30
0.0
 40
3.75
100
AcDbArc
 50
180.0
 51
0.0
  0
LWPOLYLINE
  5
307
100
AcDbEntity
  8
0
  6
CONTINUOUS
 62
     7
100
AcDbPolyline
 90
        6
 70
     1
 10
75.0
 20
21.83
 10
71.25
 20
19.665
 10
71.25
 20
15.335
 10
75.0
 20
13.17
 10
78.75
 20
15.335
 10
78.75
 20
19.665
  0
LWPOLYLINE
  5
308
100
AcDbEntity
  8
0
  6
CONTINUOUS
 62
     7
100
AcDbPolyline
 90
        4
 70
     1
 10
76.767767
 20
19.267767
 42
-0.895043
 10
73.585786
 20
15.37868
 42
0.895043
 10
76.767767
 20
19.267767
 42
0.895043
 10
72.87868
 20
16.085786
 42
-0.895043
  0
LWPOLYLINE
  5
309
100
AcDbEntity
  8
0
  6
CONTINUOUS
 62
     7
100
AcDbPolyline
 90
        2
 70
     1
 10
91.5
 20
27.5
 42
-1.0
 10
83.5
 20
27.5
 42
-1.0
  0
LWPOLYLINE
  5
30A
100
AcDbEntity
  8
0
  6
CONTINUOUS
 62
     7
100
AcDbPolyline
 90
        6
 70
     1
 10
87.5
 20
29.935625
 10
85.390625
 20
28.717812
 10
85.390625
 20
26.282187
 10
87.5
 20
25.064375
 10
89.609375
 20
26.282187
 10
89.609375
 20
28.717812
  0
LWPOLYLINE
  5
30B
100
AcDbEntity
  8
0
  6
CONTINUOUS
 62
     7
100
AcDbPolyline
 90
        2
 70
     1
 10
90.88
 20
27.5
 42
1.000393
 10
84.12
 20
27.5
 42
1.000393
  0
LWPOLYLINE
  5
30C
100
AcDbEntity
  8
0
  6
DOT
 62
     7
100
AcDbPolyline
 90
        2
 70
     1
 10
85.0
 20
27.5
 42
-1.0
 10
90.0
 20
27.5
 42
-1.0
  0
LWPOLYLINE
  5
30D
100
AcDbEntity
  8
0
  6
DOT
 62
     7
100
AcDbPolyline
 90
        2
 70
     1
 10
85.75
 20
27.5
 42
-1.0
 10
89.25
 20
27.5
 42
-1.0
  0
ENDBLK
  5
30E
100
AcDbEntity
  8
0
100
AcDbBlockEnd
  0
BLOCK
  5
310
100
AcDbEntity
  8
0
100
AcDbBlockBegin
  2
GEWINDE
 70
     0
 10
0.0
 20
0.0
 30
0.0
  3
GEWINDE
  1

  0
LWPOLYLINE
  5
311
100
AcDbEntity
  8
0
  6
CONTINUOUS
 62
     7
100
AcDbPolyline
 90
        4
 70
     1
 10
0.0
 20
0.0
 10
14.75
 20
0.0
 10
14.75
 20
7.0
 10
0.0
 20
7.0
  0
LWPOLYLINE
  5
312
100
AcDbEntity
  8
0
  6
DASHED
 62
     7
100
AcDbPolyline
 90
        4
 70
     1
 10
0.0
 20
0.65625
 10
14.75
 20
0.65625
 10
14.75
 20
6.34375
 10
0.0
 20
6.34375
  0
ENDBLK
  5
313
100
AcDbEntity
  8
0
100
AcDbBlockEnd
  0
BLOCK
  5
315
100
AcDbEntity
  8
0
100
AcDbBlockBegin
  2
MULTI
 70
     0
 10
0.0
 20
0.0
 30
0.0
  3
MULTI
  1

  0
LWPOLYLINE
  5
316
100
AcDbEntity
  8
BEMA\U+00DFUNGEN
  6
CONTINUOUS
100
AcDbPolyline
 90
        2
 70
     1
 10
26.5
 20
1.583333
 10
26.5
 20
11.641667
  0
LWPOLYLINE
  5
317
100
AcDbEntity
  8
BEMA\U+00DFUNGEN
  6
CONTINUOUS
100
AcDbPolyline
 90
        2
 70
     1
 10
0.0
 20
1.583333
 10
0.0
 20
11.641667
  0
LINE
  5
318
100
AcDbEntity
  8
BEMA\U+00DFUNGEN
  6
CONTINUOUS
100
AcDbLine
 10
13.25
 20
3.7
 30
0.0
 11
26.5
 21
3.7
 31
0.0
  0
LINE
  5
319
100
AcDbEntity
  8
BEMA\U+00DFUNGEN
  6
CONTINUOUS
100
AcDbLine
 10
13.25
 20
3.7
 30
0.0
 11
0.0
 21
3.7
 31
0.0
  0
MTEXT
  5
31A
100
AcDbEntity
  8
BEMA\U+00DFUNGEN
100
AcDbMText
 10
11.5
 20
5.499782
 30
0.0
 40
3.081935
 41
9.676842
 71
     5
 72
     5
  1
\C7;\fArial|b0|i0|;\H3.0819353945553;26,5\P0mm
  0
ENDBLK
  5
31B
100
AcDbEntity
  8
0
100
AcDbBlockEnd
  0
BLOCK
  5
31D
100
AcDbEntity
  8
0
100
AcDbBlockBegin
  2
MASTER_61
 70
     2
 10
0.0
 20
0.0
 30
0.0
  3
MASTER_61
  1

  0
LWPOLYLINE
  5
31E
100
AcDbEntity
  8
BEMA\U+00DFUNGEN
  6
CONTINUOUS
100
AcDbPolyline
 90
        4
 70
     1
 10
2.028571
 20
8.25
 10
2.028571
 20
2.75
 10
5.028571
 20
0.0
 10
5.028571
 20
11.0
  0
LWPOLYLINE
  5
31F
100
AcDbEntity
  8
0
  6
CONTINUOUS
 62
     7
100
AcDbPolyline
 90
        4
 70
     1
 10
0.0
 20
3.0
 10
2.0
 20
3.0
 10
2.0
 20
8.0
 10
0.0
 20
8.0
  0
ENDBLK
  5
320
100
AcDbEntity
  8
0
100
AcDbBlockEnd
  0
BLOCK
  5
322
100
AcDbEntity
  8
0
100
AcDbBlockBegin
  2
MASTER_62
 70
     0
 10
0.0
 20
0.0
 30
0.0
  3
MASTER_62
  1

  0
LWPOLYLINE
  5
323
100
AcDbEntity
  8
BEMA\U+00DFUNGEN
  6
CONTINUOUS
100
AcDbPolyline
 90
        3
 70
     0
 10
33.0
 20
0.0
 10
18.0
 20
0.0
 10
0.0
 20
33.0
  0
MTEXT
  5
324
100
AcDbEntity
  8
BEMA\U+00DFUNGEN
100
AcDbMText
 10
-3.425577
 20
0.0
 30
0.0
 40
3.081935
 41
6.851153
 71
     5
 72
     5
  1
\C7;\fArial|b0|i0|;\H3.0819353945553;x\Px\Px
  0
ENDBLK
  5
325
100
AcDbEntity
  8
0
100
AcDbBlockEnd
  0
BLOCK
  5
327
100
AcDbEntity
  8
0
100
AcDbBlockBegin
  2
FLACHKOPF__SCHLITZ_
 70
     0
 10
0.0
 20
0.0
 30
0.0
  3
FLACHKOPF__SCHLITZ_
  1

  0
LINE
  5
328
100
AcDbEntity
  8
0
  6
CONTINUOUS
 62
     7
100
AcDbLine
 10
31.75
 20
27.5
 30
0.0
 11
31.75
 21
22.5
 31
0.0
  0
LINE
  5
329
100
AcDbEntity
  8
0
  6
CONTINUOUS
 62
     7
100
AcDbLine
 10
20.0
 20
27.5
 30
0.0
 11
20.0
 21
22.5
 31
0.0
  0
LWPOLYLINE
  5
32A
100
AcDbEntity
  8
0
  6
CONTINUOUS
 62
     7
100
AcDbPolyline
 90
        6
 70
     1
 10
17.5
 20
27.5
 10
31.75
 20
27.5
 10
32.5
 20
26.75
 10
32.5
 20
23.25
 10
31.75
 20
22.5
 10
17.5
 20
22.5
  0
LWPOLYLINE
  5
32B
100
AcDbEntity
  8
0
  6
CONTINUOUS
 62
     7
100
AcDbPolyline
 90
        3
 70
     0
 10
18.700962
 20
22.5
 10
20.0
 20
23.25
 10
32.5
 20
23.25
  0
LWPOLYLINE
  5
32C
100
AcDbEntity
  8
0
  6
CONTINUOUS
 62
     7
100
AcDbPolyline
 90
        3
 70
     0
 10
18.700962
 20
27.5
 10
20.0
 20
26.75
 10
32.5
 20
26.75
  0
LWPOLYLINE
  5
32D
100
AcDbEntity
  8
0
  6
CONTINUOUS
 62
     7
100
AcDbPolyline
 90
       10
 70
     1
 10
17.5
 20
30.0
 10
16.25
 20
30.0
 42
0.414223
 10
15.0
 20
28.75
 10
15.0
 20
25.625
 10
16.666667
 20
25.625
 10
16.666667
 20
24.375
 10
15.0
 20
24.375
 10
15.0
 20
21.25
 42
0.414223
 10
16.25
 20
20.0
 10
17.5
 20
20.0
  0
ENDBLK
  5
32E
100
AcDbEntity
  8
0
100
AcDbBlockEnd
  0
BLOCK
  5
330
100
AcDbEntity
  8
0
100
AcDbBlockBegin
  2
MASTER_64
 70
     0
 10
0.0
 20
0.0
 30
0.0
  3
MASTER_64
  1

  0
LWPOLYLINE
  5
331
100
AcDbEntity
  8
BEMA\U+00DFUNGEN
  6
CONTINUOUS
100
AcDbPolyline
 90
        4
 70
     1
 10
6.25
 20
0.0
 10
18.75
 20
0.0
 10
25.0
 20
15.0
 10
0.0
 20
15.0
  0
ENDBLK
  5
332
100
AcDbEntity
  8
0
100
AcDbBlockEnd
  0
ENDSEC
  0
SECTION
  2
ENTITIES
  0
LWPOLYLINE
  5
31
102
{ACAD_REACTORS
330
7E
102
}
100
AcDbEntity
  8
0
  6
CONTINUOUS
 62
     7
100
AcDbPolyline
 90
        4
 70
     1
 10
0.0
 20
0.0
 10
150.0
 20
0.0
 10
150.0
 20
350.0
 10
0.0
 20
350.0
  0
LINE
  5
33
102
{ACAD_REACTORS
330
32
102
}
100
AcDbEntity
  8
0
  6
CONTINUOUS
 62
     7
100
AcDbLine
 10
129.0328
 20
113.868883
 30
0.0
 11
129.031712
 21
113.868627
 31
0.0
  0
LINE
  5
34
102
{ACAD_REACTORS
330
32
102
}
100
AcDbEntity
  8
0
  6
CONTINUOUS
 62
     7
100
AcDbLine
 10
10.33619
 20
100.18663
 30
0.0
 11
10.336702
 21
100.185636
 31
0.0
  0
LINE
  5
35
102
{ACAD_REACTORS
330
32
102
}
100
AcDbEntity
  8
0
  6
CONTINUOUS
 62
     7
100
AcDbLine
 10
20.9672
 20
7.465626
 30
0.0
 11
20.968288
 21
7.465882
 31
0.0
  0
LINE
  5
36
102
{ACAD_REACTORS
330
32
102
}
100
AcDbEntity
  8
0
  6
CONTINUOUS
 62
     7
100
AcDbLine
 10
139.66381
 20
21.14789
 30
0.0
 11
139.663298
 21
21.148884
 31
0.0
  0
LWPOLYLINE
  5
37
102
{ACAD_REACTORS
330
32
102
}
100
AcDbEntity
  8
0
  6
CONTINUOUS
 62
     7
100
AcDbPolyline
 90
      149
 70
     1
 10
125.015676
 20
27.990972
 10
98.631427
 20
48.604606
 42
-0.198556
 10
94.991134
 20
57.331512
 10
94.991071
 20
57.370826
 42
-0.009498
 10
95.0
 20
57.840829
 10
95.0
 20
63.331262
 42
-0.013433
 10
94.982143
 20
63.995826
 42
-0.211585
 10
99.0425
 20
73.161378
 10
100.475341
 20
74.280836
 42
-0.002998
 10
100.599172
 20
74.362622
 10
123.912897
 20
92.5773
 42
-0.156108
 10
130.775488
 20
95.109666
 42
0.012451
 10
131.248486
 20
95.102144
 42
0.102186
 10
135.004842
 20
95.913244
 42
0.135038
 10
138.924235
 20
99.081086
 42
-0.008141
 10
139.157227
 20
99.394754
 10
139.195079
 20
99.443754
 42
0.062277
 10
139.575214
 20
100.083817
 42
-0.003792
 10
139.649285
 20
100.250077
 42
-0.005639
 10
139.764068
 20
100.495178
 42
0.049305
 10
140.406232
 20
102.250454
 42
-0.022507
 10
140.722439
 20
103.2829
 10
143.46686
 20
110.987201
 42
0.549833
 10
140.347701
 20
114.979542
 10
140.302518
 20
114.975107
 10
132.177218
 20
114.177429
 42
-0.004818
 10
131.946867
 20
114.157053
 42
-0.016317
 10
131.164693
 20
114.121082
 10
131.117505
 20
114.120546
 42
0.047961
 10
129.309213
 20
113.929531
 42
-0.001886
 10
129.220435
 20
113.911782
 42
-0.004006
 10
129.031467
 20
113.876314
 10
128.985816
 20
113.868214
 42
-0.002998
 10
128.843917
 20
113.844198
 42
0.065115
 10
128.097726
 20
113.620131
 42
0.005718
 10
128.034893
 20
113.592274
 42
-0.008695
 10
127.662391
 20
113.435022
 42
0.008498
 10
127.364904
 20
113.309481
 42
0.265305
 10
121.733818
 20
105.759518
 42
0.013919
 10
121.684006
 20
105.233068
 42
-0.213422
 10
120.155494
 20
102.346839
 10
95.695365
 20
83.236491
 10
95.42495
 20
83.02522
 42
-0.149739
 10
92.624316
 20
82.167255
 42
-0.414214
 10
89.0
 20
85.791571
 10
89.0
 20
107.667255
 42
0.708812
 10
83.658126
 20
109.542255
 42
-0.227735
 10
79.755002
 20
107.667255
 10
70.244998
 20
107.667255
 42
-0.227735
 10
66.341874
 20
109.542255
 42
0.708812
 10
61.0
 20
107.667255
 10
61.0
 20
84.840232
 42
-0.414214
 10
58.327023
 20
82.167255
 10
57.375684
 20
82.167255
 42
-0.167343
 10
54.297377
 20
83.227201
 10
30.277962
 20
101.993224
 42
-0.136679
 10
28.224279
 20
105.76372
 42
0.011147
 10
28.163975
 20
106.182923
 42
0.261549
 10
22.33778
 20
113.434953
 42
-0.009861
 10
21.90226
 20
113.620155
 42
0.065147
 10
21.156678
 20
113.844016
 42
-0.00989
 10
20.689769
 20
113.929633
 42
0.047977
 10
18.882515
 20
114.120563
 42
-0.022124
 10
17.822593
 20
114.177447
 10
9.652299
 20
114.979542
 42
0.408905
 10
6.379359
 20
112.341166
 42
0.122771
 10
6.5212
 20
110.896738
 10
9.338578
 20
102.987627
 42
-0.024521
 10
9.565203
 20
102.236896
 42
0.051526
 10
10.229491
 20
100.400565
 42
-0.007465
 10
10.330185
 20
100.183947
 42
-0.005292
 10
10.397624
 20
100.028622
 42
0.068621
 10
10.816783
 20
99.32307
 42
-0.012758
 10
11.063018
 20
98.997527
 42
0.267736
 10
19.709804
 20
95.078537
 42
-0.11727
 10
24.984387
 20
93.343499
 10
51.470066
 20
72.650619
 42
-0.196088
 10
55.0
 20
63.995826
 10
55.0
 20
57.840829
 42
-0.009498
 10
55.008929
 20
57.370826
 10
55.008866
 20
57.331512
 42
-0.223122
 10
50.506446
 20
47.822837
 10
50.451939
 20
47.778155
 10
50.050309
 20
47.464367
 42
-0.006915
 10
49.773485
 20
47.263039
 10
26.087103
 20
28.757209
 42
-0.156108
 10
19.224505
 20
26.224843
 42
0.012451
 10
18.751514
 20
26.232366
 42
0.102216
 10
14.994105
 20
25.420806
 42
0.135007
 10
11.075765
 20
22.253423
 42
-0.008141
 10
10.842768
 20
21.939749
 10
10.804921
 20
21.890756
 42
0.062277
 10
10.424786
 20
21.250693
 42
-0.003792
 10
10.350715
 20
21.084432
 42
-0.005639
 10
10.235932
 20
20.839331
 42
0.049305
 10
9.593768
 20
19.084056
 42
-0.022507
 10
9.277561
 20
18.05161
 10
6.53314
 20
10.347308
 42
0.549833
 10
9.652299
 20
6.354967
 10
9.697467
 20
6.359402
 10
17.822782
 20
7.157081
 42
-0.004818
 10
18.053119
 20
7.177455
 42
-0.016317
 10
18.835293
 20
7.213427
 10
18.882495
 20
7.213963
 42
0.047961
 10
20.690787
 20
7.404979
 42
-0.001886
 10
20.779551
 20
7.422724
 42
-0.004006
 10
20.968533
 20
7.458196
 10
21.014171
 20
7.466293
 42
-0.002999
 10
21.156083
 20
7.490312
 42
0.065115
 10
21.902274
 20
7.714379
 42
0.005635
 10
21.965093
 20
7.742235
 42
-0.008681
 10
22.337609
 20
7.899488
 42
0.008528
 10
22.636135
 20
8.025488
 42
0.265273
 10
28.266168
 20
15.574992
 42
0.013919
 10
28.31598
 20
16.101442
 42
-0.213422
 10
29.844492
 20
18.987671
 10
54.30463
 20
38.098025
 10
54.574944
 20
38.309217
 42
-0.149746
 10
57.375684
 20
39.167255
 42
-0.414214
 10
61.0
 20
35.542939
 10
61.0
 20
30.667255
 42
0.708812
 10
66.341874
 20
28.792255
 42
-0.227735
 10
70.244998
 20
30.667255
 10
79.755002
 20
30.667255
 42
-0.227735
 10
83.658126
 20
28.792255
 42
0.708812
 10
89.0
 20
30.667255
 10
89.0
 20
35.542939
 42
-0.414214
 10
92.624316
 20
39.167255
 42
-0.167343
 10
95.702623
 20
38.107308
 10
119.72208
 20
19.341252
 42
-0.136676
 10
121.775718
 20
15.570811
 42
0.011147
 10
121.836023
 20
15.151597
 42
0.261549
 10
127.66222
 20
7.899556
 42
-0.009861
 10
128.09774
 20
7.714355
 42
0.065147
 10
128.843322
 20
7.490493
 42
-0.00989
 10
129.310231
 20
7.404876
 42
0.047977
 10
131.117485
 20
7.213947
 42
-0.022124
 10
132.177407
 20
7.157062
 10
140.347701
 20
6.354967
 42
0.40891
 10
143.620647
 20
8.993394
 42
0.122768
 10
143.4788
 20
10.437782
 10
140.661422
 20
18.346893
 42
-0.024521
 10
140.434797
 20
19.097624
 42
0.051526
 10
139.770509
 20
20.933955
 42
-0.007465
 10
139.669815
 20
21.150573
 42
-0.005292
 10
139.602376
 20
21.305898
 42
0.068621
 10
139.183217
 20
22.01145
 42
-0.012758
 10
138.936982
 20
22.336993
 42
0.267737
 10
130.290138
 20
26.255977
 42
-0.117268
  0
LWPOLYLINE
  5
38
102
{ACAD_REACTORS
330
32
102
}
100
AcDbEntity
  8
0
  6
CONTINUOUS
 62
     7
100
AcDbPolyline
 90
        2
 70
     1
 10
16.293261
 20
16.713544
 42
-1.0
 10
21.293261
 20
16.713544
 42
-1.0
  0
LWPOLYLINE
  5
39
102
{ACAD_REACTORS
330
32
102
}
100
AcDbEntity
  8
0
  6
CONTINUOUS
 62
     7
100
AcDbPolyline
 90
        2
 70
     1
 10
16.293261
 20
104.620965
 42
-1.0
 10
21.293261
 20
104.620965
 42
-1.0
  0
LWPOLYLINE
  5
3A
102
{ACAD_REACTORS
330
32
102
}
100
AcDbEntity
  8
0
  6
CONTINUOUS
 62
     7
100
AcDbPolyline
 90
        2
 70
     1
 10
128.706739
 20
16.713544
 42
-1.0
 10
133.706739
 20
16.713544
 42
-1.0
  0
LWPOLYLINE
  5
3B
102
{ACAD_REACTORS
330
32
102
}
100
AcDbEntity
  8
0
  6
CONTINUOUS
 62
     7
100
AcDbPolyline
 90
        2
 70
     1
 10
128.706739
 20
104.620965
 42
-1.0
 10
133.706739
 20
104.620965
 42
-1.0
  0
LWPOLYLINE
  5
3C
102
{ACAD_REACTORS
330
32
102
}
100
AcDbEntity
  8
0
  6
CONTINUOUS
 62
     7
100
AcDbPolyline
 90
        4
 70
     1
 10
137.269757
 20
104.878564
 42
-1.0
 10
137.026003
 20
102.893474
 10
135.537185
 20
103.07629
 42
-1.0
 10
135.78094
 20
105.061381
  0
LWPOLYLINE
  5
3D
102
{ACAD_REACTORS
330
32
102
}
100
AcDbEntity
  8
0
  6
CONTINUOUS
 62
     7
100
AcDbPolyline
 90
        4
 70
     1
 10
125.114301
 20
104.361804
 42
-1.0
 10
125.358057
 20
106.346895
 10
126.846875
 20
106.164078
 42
-1.0
 10
126.603119
 20
104.178988
  0
LWPOLYLINE
  5
3E
102
{ACAD_REACTORS
330
32
102
}
100
AcDbEntity
  8
0
  6
CONTINUOUS
 62
     7
100
AcDbPolyline
 90
        4
 70
     1
 10
132.91307
 20
110.45487
 42
1.0
 10
130.927976
 20
110.698592
 10
130.745184
 20
109.209772
 42
1.0
 10
132.730278
 20
108.96605
  0
LWPOLYLINE
  5
3F
102
{ACAD_REACTORS
330
32
102
}
100
AcDbEntity
  8
0
  6
CONTINUOUS
 62
     7
100
AcDbPolyline
 90
        4
 70
     1
 10
129.470989
 20
98.785498
 42
1.0
 10
131.456083
 20
98.541776
 10
131.638875
 20
100.030597
 42
1.0
 10
129.653781
 20
100.274319
  0
LWPOLYLINE
  5
40
102
{ACAD_REACTORS
330
32
102
}
100
AcDbEntity
  8
0
  6
CONTINUOUS
 62
     7
100
AcDbPolyline
 90
        4
 70
     1
 10
12.730243
 20
16.455946
 42
-1.0
 10
12.973997
 20
18.441036
 10
14.462815
 20
18.258219
 42
-1.0
 10
14.21906
 20
16.273129
  0
LWPOLYLINE
  5
41
102
{ACAD_REACTORS
330
32
102
}
100
AcDbEntity
  8
0
  6
CONTINUOUS
 62
     7
100
AcDbPolyline
 90
        4
 70
     1
 10
24.885699
 20
16.972705
 42
-1.0
 10
24.641943
 20
14.987615
 10
23.153125
 20
15.170432
 42
-1.0
 10
23.396881
 20
17.155522
  0
LWPOLYLINE
  5
42
102
{ACAD_REACTORS
330
32
102
}
100
AcDbEntity
  8
0
  6
CONTINUOUS
 62
     7
100
AcDbPolyline
 90
        4
 70
     1
 10
17.08693
 20
10.879639
 42
1.0
 10
19.072024
 20
10.635917
 10
19.254816
 20
12.124738
 42
1.0
 10
17.269722
 20
12.36846
  0
LWPOLYLINE
  5
43
102
{ACAD_REACTORS
330
32
102
}
100
AcDbEntity
  8
0
  6
CONTINUOUS
 62
     7
100
AcDbPolyline
 90
        4
 70
     1
 10
20.529011
 20
22.549012
 42
1.0
 10
18.543917
 20
22.792733
 10
18.361125
 20
21.303913
 42
1.0
 10
20.346219
 20
21.060191
  0
LWPOLYLINE
  5
44
102
{ACAD_REACTORS
330
32
102
}
100
AcDbEntity
  8
0
  6
CONTINUOUS
 62
     7
100
AcDbPolyline
 90
        4
 70
     1
 10
137.269757
 20
16.455946
 42
1.0
 10
137.026003
 20
18.441036
 10
135.537185
 20
18.258219
 42
1.0
 10
135.78094
 20
16.273129
  0
LWPOLYLINE
  5
45
102
{ACAD_REACTORS
330
32
102
}
100
AcDbEntity
  8
0
  6
CONTINUOUS
 62
     7
100
AcDbPolyline
 90
        4
 70
     1
 10
125.114301
 20
16.972705
 42
1.0
 10
125.358057
 20
14.987615
 10
126.846875
 20
15.170432
 42
1.0
 10
126.603119
 20
17.155522
  0
LWPOLYLINE
  5
46
102
{ACAD_REACTORS
330
32
102
}
100
AcDbEntity
  8
0
  6
CONTINUOUS
 62
     7
100
AcDbPolyline
 90
        4
 70
     1
 10
132.91307
 20
10.879639
 42
-1.0
 10
130.927976
 20
10.635917
 10
130.745184
 20
12.124738
 42
-1.0
 10
132.730278
 20
12.36846
  0
LWPOLYLINE
  5
47
102
{ACAD_REACTORS
330
32
102
}
100
AcDbEntity
  8
0
  6
CONTINUOUS
 62
     7
100
AcDbPolyline
 90
        4
 70
     1
 10
129.470989
 20
22.549012
 42
-1.0
 10
131.456083
 20
22.792733
 10
131.638875
 20
21.303913
 42
-1.0
 10
129.653781
 20
21.060191
  0
LWPOLYLINE
  5
48
102
{ACAD_REACTORS
330
32
102
}
100
AcDbEntity
  8
0
  6
CONTINUOUS
 62
     7
100
AcDbPolyline
 90
        4
 70
     1
 10
12.730243
 20
104.878564
 42
1.0
 10
12.973997
 20
102.893474
 10
14.462815
 20
103.07629
 42
1.0
 10
14.21906
 20
105.061381
  0
LWPOLYLINE
  5
49
102
{ACAD_REACTORS
330
32
102
}
100
AcDbEntity
  8
0
  6
CONTINUOUS
 62
     7
100
AcDbPolyline
 90
        4
 70
     1
 10
24.885699
 20
104.361804
 42
1.0
 10
24.641943
 20
106.346895
 10
23.153125
 20
106.164078
 42
1.0
 10
23.396881
 20
104.178988
  0
LWPOLYLINE
  5
4A
102
{ACAD_REACTORS
330
32
102
}
100
AcDbEntity
  8
0
  6
CONTINUOUS
 62
     7
100
AcDbPolyline
 90
        4
 70
     1
 10
17.08693
 20
110.45487
 42
-1.0
 10
19.072024
 20
110.698592
 10
19.254816
 20
109.209772
 42
-1.0
 10
17.269722
 20
108.96605
  0
LWPOLYLINE
  5
4B
102
{ACAD_REACTORS
330
32
102
}
100
AcDbEntity
  8
0
  6
CONTINUOUS
 62
     7
100
AcDbPolyline
 90
        4
 70
     1
 10
20.529011
 20
98.785498
 42
-1.0
 10
18.543917
 20
98.541776
 10
18.361125
 20
100.030597
 42
-1.0
 10
20.346219
 20
100.274319
  0
LWPOLYLINE
  5
4C
102
{ACAD_REACTORS
330
32
102
}
100
AcDbEntity
  8
0
  6
CONTINUOUS
 62
     7
100
AcDbPolyline
 90
        2
 70
     1
 10
84.9
 20
107.667255
 42
-1.0
 10
87.1
 20
107.667255
 42
-1.0
  0
LWPOLYLINE
  5
4D
102
{ACAD_REACTORS
330
32
102
}
100
AcDbEntity
  8
0
  6
CONTINUOUS
 62
     7
100
AcDbPolyline
 90
        6
 70
     1
 10
87.154701
 20
109.667255
 10
84.845299
 20
109.667255
 10
83.690599
 20
107.667255
 10
84.845299
 20
105.667255
 10
87.154701
 20
105.667255
 10
88.309401
 20
107.667255
  0
LWPOLYLINE
  5
4E
102
{ACAD_REACTORS
330
32
102
}
100
AcDbEntity
  8
0
  6
CONTINUOUS
 62
     7
100
AcDbPolyline
 90
        2
 70
     1
 10
65.1
 20
30.667255
 42
-1.0
 10
62.9
 20
30.667255
 42
-1.0
  0
LWPOLYLINE
  5
4F
102
{ACAD_REACTORS
330
32
102
}
100
AcDbEntity
  8
0
  6
CONTINUOUS
 62
     7
100
AcDbPolyline
 90
        6
 70
     1
 10
62.845299
 20
28.667255
 10
65.154701
 20
28.667255
 10
66.309401
 20
30.667255
 10
65.154701
 20
32.667255
 10
62.845299
 20
32.667255
 10
61.690599
 20
30.667255
  0
LWPOLYLINE
  5
50
102
{ACAD_REACTORS
330
32
102
}
100
AcDbEntity
  8
0
  6
CONTINUOUS
 62
     7
100
AcDbPolyline
 90
        2
 70
     1
 10
87.1
 20
30.667255
 42
-1.0
 10
84.9
 20
30.667255
 42
-1.0
  0
LWPOLYLINE
  5
51
102
{ACAD_REACTORS
330
32
102
}
100
AcDbEntity
  8
0
  6
CONTINUOUS
 62
     7
100
AcDbPolyline
 90
        6
 70
     1
 10
84.845299
 20
28.667255
 10
87.154701
 20
28.667255
 10
88.309401
 20
30.667255
 10
87.154701
 20
32.667255
 10
84.845299
 20
32.667255
 10
83.690599
 20
30.667255
  0
LWPOLYLINE
  5
52
102
{ACAD_REACTORS
330
32
102
}
100
AcDbEntity
  8
0
  6
CONTINUOUS
 62
     7
100
AcDbPolyline
 90
        2
 70
     1
 10
62.9
 20
107.667255
 42
-1.0
 10
65.1
 20
107.667255
 42
-1.0
  0
LWPOLYLINE
  5
53
102
{ACAD_REACTORS
330
32
102
}
100
AcDbEntity
  8
0
  6
CONTINUOUS
 62
     7
100
AcDbPolyline
 90
        6
 70
     1
 10
65.154701
 20
109.667255
 10
62.845299
 20
109.667255
 10
61.690599
 20
107.667255
 10
62.845299
 20
105.667255
 10
65.154701
 20
105.667255
 10
66.309401
 20
107.667255
  0
LWPOLYLINE
  5
54
102
{ACAD_REACTORS
330
32
102
}
100
AcDbEntity
  8
0
  6
CONTINUOUS
 62
     7
100
AcDbPolyline
 90
        2
 70
     1
 10
58.15
 20
75.917255
 42
-1.0
 10
61.35
 20
75.917255
 42
-1.0
  0
LWPOLYLINE
  5
55
102
{ACAD_REACTORS
330
32
102
}
100
AcDbEntity
  8
0
  6
CONTINUOUS
 62
     7
100
AcDbPolyline
 90
        2
 70
     1
 10
63.75
 20
50.667255
 42
-1.0
 10
66.25
 20
50.667255
 42
-1.0
  0
LWPOLYLINE
  5
56
102
{ACAD_REACTORS
330
32
102
}
100
AcDbEntity
  8
0
  6
CONTINUOUS
 62
     7
100
AcDbPolyline
 90
        2
 70
     1
 10
83.75
 20
70.667255
 42
-1.0
 10
86.25
 20
70.667255
 42
-1.0
  0
LWPOLYLINE
  5
57
102
{ACAD_REACTORS
330
32
102
}
100
AcDbEntity
  8
0
  6
CONTINUOUS
 62
     7
100
AcDbPolyline
 90
        2
 70
     1
 10
83.75
 20
50.667255
 42
-1.0
 10
86.25
 20
50.667255
 42
-1.0
  0
LWPOLYLINE
  5
58
102
{ACAD_REACTORS
330
32
102
}
100
AcDbEntity
  8
0
  6
CONTINUOUS
 62
     7
100
AcDbPolyline
 90
        2
 70
     1
 10
88.65
 20
75.917255
 42
-1.0
 10
91.85
 20
75.917255
 42
-1.0
  0
LWPOLYLINE
  5
59
102
{ACAD_REACTORS
330
32
102
}
100
AcDbEntity
  8
0
  6
CONTINUOUS
 62
     7
100
AcDbPolyline
 90
        2
 70
     1
 10
88.65
 20
45.417255
 42
-1.0
 10
91.85
 20
45.417255
 42
-1.0
  0
LWPOLYLINE
  5
5A
102
{ACAD_REACTORS
330
32
102
}
100
AcDbEntity
  8
0
  6
CONTINUOUS
 62
     7
100
AcDbPolyline
 90
        2
 70
     1
 10
63.75
 20
70.667255
 42
-1.0
 10
66.25
 20
70.667255
 42
-1.0
  0
LWPOLYLINE
  5
5B
102
{ACAD_REACTORS
330
32
102
}
100
AcDbEntity
  8
0
  6
CONTINUOUS
 62
     7
100
AcDbPolyline
 90
        2
 70
     1
 10
58.15
 20
45.417255
 42
-1.0
 10
61.35
 20
45.417255
 42
-1.0
  0
LWPOLYLINE
  5
5C
102
{ACAD_REACTORS
330
32
102
}
100
AcDbEntity
  8
0
  6
CONTINUOUS
 62
     7
100
AcDbPolyline
 90
        8
 70
     1
 10
67.0
 20
55.667255
 10
83.0
 20
55.667255
 42
0.414214
 10
85.0
 20
57.667255
 10
85.0
 20
63.667255
 42
0.414214
 10
83.0
 20
65.667255
 10
67.0
 20
65.667255
 42
0.414214
 10
65.0
 20
63.667255
 10
65.0
 20
57.667255
 42
0.414214
  0
LWPOLYLINE
  5
5D
102
{ACAD_REACTORS
330
32
102
}
100
AcDbEntity
  8
0
  6
CONTINUOUS
 62
     7
100
AcDbPolyline
 90
       12
 70
     1
 10
74.81067
 20
41.656282
 10
75.189329
 20
41.656282
 42
0.192231
 10
76.566678
 20
42.206141
 10
81.190054
 20
46.597435
 42
0.20561
 10
81.636587
 20
47.637398
 10
81.636587
 20
49.553322
 42
0.414214
 10
78.768003
 20
52.421906
 10
71.231997
 20
52.421906
 42
0.414214
 10
68.363413
 20
49.553322
 10
68.363413
 20
47.637398
 42
0.20561
 10
68.809944
 20
46.597435
 10
73.433321
 20
42.206141
 42
0.192231
  0
LWPOLYLINE
  5
5E
102
{ACAD_REACTORS
330
32
102
}
100
AcDbEntity
  8
0
  6
CONTINUOUS
 62
     7
100
AcDbPolyline
 90
        8
 70
     1
 10
71.46932
 20
38.003609
 10
71.46932
 20
38.597147
 42
0.20561
 10
70.846668
 20
40.047289
 10
69.507064
 20
41.319648
 42
0.476332
 10
67.052855
 20
41.000265
 42
0.163002
 10
65.706026
 20
35.226194
 42
0.625714
 10
68.390159
 20
34.220268
 10
70.846668
 20
36.553467
 42
0.20561
  0
LWPOLYLINE
  5
5F
102
{ACAD_REACTORS
330
32
102
}
100
AcDbEntity
  8
0
  6
CONTINUOUS
 62
     7
100
AcDbPolyline
 90
        8
 70
     1
 10
79.153332
 20
36.553467
 10
81.609841
 20
34.220268
 42
0.625714
 10
84.293975
 20
35.226194
 42
0.163002
 10
82.947145
 20
41.000265
 42
0.476332
 10
80.492936
 20
41.319648
 10
79.153332
 20
40.047289
 42
0.20561
 10
78.53068
 20
38.597147
 10
78.53068
 20
38.003609
 42
0.20561
  0
LWPOLYLINE
  5
60
102
{ACAD_REACTORS
330
32
102
}
100
AcDbEntity
  8
0
  6
CONTINUOUS
 62
     7
100
AcDbPolyline
 90
        6
 70
     1
 10
58.2
 20
49.667255
 42
0.414214
 10
59.45
 20
50.917255
 10
59.45
 20
70.417255
 42
0.414214
 10
58.2
 20
71.667255
 42
0.414214
 10
56.95
 20
70.417255
 10
56.95
 20
50.917255
 42
0.414214
  0
LWPOLYLINE
  5
61
102
{ACAD_REACTORS
330
32
102
}
100
AcDbEntity
  8
0
  6
CONTINUOUS
 62
     7
100
AcDbPolyline
 90
        6
 70
     1
 10
91.8
 20
49.667255
 42
0.414214
 10
93.05
 20
50.917255
 10
93.05
 20
70.417255
 42
0.414214
 10
91.8
 20
71.667255
 42
0.414214
 10
90.55
 20
70.417255
 10
90.55
 20
50.917255
 42
0.414214
  0
LWPOLYLINE
  5
62
102
{ACAD_REACTORS
330
32
102
}
100
AcDbEntity
  8
0
  6
CONTINUOUS
 62
     7
100
AcDbPolyline
 90
        2
 70
     1
 10
136.371785
 20
10.158501
 42
1.0
 10
138.834431
 20
13.310544
 42
1.0
  0
LWPOLYLINE
  5
63
102
{ACAD_REACTORS
330
32
102
}
100
AcDbEntity
  8
0
  6
CONTINUOUS
 62
     7
100
AcDbPolyline
 90
        2
 70
     1
 10
136.371799
 20
111.162306
 42
-1.0
 10
138.834445
 20
108.010263
 42
-1.0
  0
LWPOLYLINE
  5
64
102
{ACAD_REACTORS
330
32
102
}
100
AcDbEntity
  8
0
  6
CONTINUOUS
 62
     7
100
AcDbPolyline
 90
        2
 70
     1
 10
13.628201
 20
111.162306
 42
1.0
 10
11.165555
 20
108.010263
 42
1.0
  0
LWPOLYLINE
  5
65
102
{ACAD_REACTORS
330
32
102
}
100
AcDbEntity
  8
0
  6
CONTINUOUS
 62
     7
100
AcDbPolyline
 90
        2
 70
     1
 10
13.628201
 20
10.158511
 42
-1.0
 10
11.165555
 20
13.310554
 42
-1.0
  0
LWPOLYLINE
  5
66
102
{ACAD_REACTORS
330
32
102
}
100
AcDbEntity
  8
0
  6
CONTINUOUS
 62
     7
100
AcDbPolyline
 90
        6
 70
     1
 10
64.0
 20
89.317255
 42
0.414214
 10
65.1
 20
90.417255
 10
65.1
 20
96.217255
 42
0.414214
 10
64.0
 20
97.317255
 42
0.414214
 10
62.9
 20
96.217255
 10
62.9
 20
90.417255
 42
0.414214
  0
LWPOLYLINE
  5
67
102
{ACAD_REACTORS
330
32
102
}
100
AcDbEntity
  8
0
  6
CONTINUOUS
 62
     7
100
AcDbPolyline
 90
        6
 70
     1
 10
86.0
 20
88.817255
 42
0.414214
 10
87.1
 20
89.917255
 10
87.1
 20
95.717255
 42
0.414214
 10
86.0
 20
96.817255
 42
0.414214
 10
84.9
 20
95.717255
 10
84.9
 20
89.917255
 42
0.414214
  0
LWPOLYLINE
  5
68
102
{ACAD_REACTORS
330
32
102
}
100
AcDbEntity
  8
0
  6
CONTINUOUS
 62
     7
100
AcDbPolyline
 90
        8
 70
     1
 10
71.469319
 20
101.813073
 10
71.469319
 20
102.406611
 42
0.20561
 10
70.846668
 20
103.856753
 10
69.507063
 20
105.129112
 42
0.476332
 10
67.052854
 20
104.809729
 42
0.163002
 10
65.706025
 20
99.035658
 42
0.625714
 10
68.390158
 20
98.029732
 10
70.846668
 20
100.362931
 42
0.20561
  0
LWPOLYLINE
  5
69
102
{ACAD_REACTORS
330
32
102
}
100
AcDbEntity
  8
0
  6
CONTINUOUS
 62
     7
100
AcDbPolyline
 90
        8
 70
     1
 10
79.153332
 20
100.362931
 10
81.609841
 20
98.029732
 42
0.625714
 10
84.293974
 20
99.035658
 42
0.163002
 10
82.947145
 20
104.809729
 42
0.476332
 10
80.492936
 20
105.129112
 10
79.153332
 20
103.856753
 42
0.20561
 10
78.53068
 20
102.406611
 10
78.53068
 20
101.813073
 42
0.20561
  0
LWPOLYLINE
  5
6A
102
{ACAD_REACTORS
330
32
102
}
100
AcDbEntity
  8
0
  6
CONTINUOUS
 62
     7
100
AcDbPolyline
 90
       10
 70
     1
 10
80.987809
 20
92.899414
 42
0.216053
 10
80.492936
 20
94.118645
 10
76.097511
 20
98.29343
 42
0.399215
 10
73.902489
 20
98.29343
 10
69.507063
 20
94.118645
 42
0.216053
 10
69.012191
 20
92.899414
 42
0.216053
 10
69.507064
 20
91.680183
 10
73.902488
 20
87.505398
 42
0.399215
 10
76.09751
 20
87.505398
 10
80.492936
 20
91.680183
 42
0.216053
  0
LWPOLYLINE
  5
6B
102
{ACAD_REACTORS
330
32
102
}
100
AcDbEntity
  8
0
  6
CONTINUOUS
 62
     7
100
AcDbPolyline
 90
        8
 70
     1
 10
78.53068
 20
83.3309
 10
78.53068
 20
82.737362
 42
0.20561
 10
79.153332
 20
81.28722
 10
80.492936
 20
80.014861
 42
0.476332
 10
82.947145
 20
80.334244
 42
0.163002
 10
84.293975
 20
86.108315
 42
0.625714
 10
81.609841
 20
87.114241
 10
79.153332
 20
84.781042
 42
0.20561
  0
LWPOLYLINE
  5
6C
102
{ACAD_REACTORS
330
32
102
}
100
AcDbEntity
  8
0
  6
CONTINUOUS
 62
     7
100
AcDbPolyline
 90
        8
 70
     1
 10
70.846668
 20
84.781042
 10
68.390159
 20
87.114241
 42
0.625714
 10
65.706026
 20
86.108315
 42
0.163002
 10
67.052855
 20
80.334244
 42
0.476332
 10
69.507064
 20
80.014861
 10
70.846668
 20
81.28722
 42
0.20561
 10
71.46932
 20
82.737362
 10
71.46932
 20
83.3309
 42
0.20561
  0
LWPOLYLINE
  5
6D
102
{ACAD_REACTORS
330
32
102
}
100
AcDbEntity
  8
0
  6
CONTINUOUS
 62
     7
100
AcDbPolyline
 90
       12
 70
     1
 10
73.433321
 20
79.128369
 10
68.809944
 20
74.737074
 42
0.20561
 10
68.363413
 20
73.697111
 10
68.363413
 20
71.781187
 42
0.414214
 10
71.231997
 20
68.912603
 10
78.768003
 20
68.912603
 42
0.414214
 10
81.636587
 20
71.781187
 10
81.636587
 20
73.697111
 42
0.20561
 10
81.190054
 20
74.737074
 10
76.566678
 20
79.128369
 42
0.192231
 10
75.189329
 20
79.678227
 10
74.81067
 20
79.678227
 42
0.192231
  0
ENDSEC
  0
SECTION
  2
OBJECTS
  0
DICTIONARY
  5
C
100
AcDbDictionary
  3
ACAD_GROUP
350
D
  3
ACAD_MLINESTYLE
350
1B
  0
DICTIONARY
  5
D
102
{ACAD_REACTORS
330
C
102
}
100
AcDbDictionary
  3
VISIOGROUP_0
350
32
  0
DICTIONARY
  5
1B
102
{ACAD_REACTORS
330
C
102
}
100
AcDbDictionary
  3
STANDARD
350
1C
  0
MLINESTYLE
  5
1C
102
{ACAD_REACTORS
330
1B
102
}
100
AcDbMlineStyle
  2
STANDARD
 70
     0
  3

 62
   256
 51
90.0
 52
90.0
 71
     2
 49
0.5
 62
   256
  6
BYLAYER
 49
-0.5
 62
   256
  6
BYLAYER
  0
GROUP
  5
32
102
{ACAD_REACTORS
330
D
102
}
100
AcDbGroup
300
Group created by UlrichC.
 70
     0
 71
     1
340
33
340
34
340
35
340
36
340
37
340
38
340
39
340
3A
340
3B
340
3C
340
3D
340
3E
340
3F
340
40
340
41
340
42
340
43
340
44
340
45
340
46
340
47
340
48
340
49
340
4A
340
4B
340
4C
340
4D
340
4E
340
4F
340
50
340
51
340
52
340
53
340
54
340
55
340
56
340
57
340
58
340
59
340
5A
340
5B
340
5C
340
5D
340
5E
340
5F
340
60
340
61
340
62
340
63
340
64
340
65
340
66
340
67
340
68
340
69
340
6A
340
6B
340
6C
340
6D
  0
ENDSEC
  0
EOF

