  0
SECTION
  2
HEADER
  9
$ACADVER
  1
AC1014
  9
$ACADMAINTVER
 70
     0
  9
$DWGCODEPAGE
  3
ANSI_1252
  9
$INSBASE
 10
0.0
 20
0.0
 30
0.0
  9
$EXTMIN
 10
0.0
 20
0.0
 30
0.0
  9
$EXTMAX
 10
558.8
 20
431.8
 30
0.0
  9
$LIMMIN
 10
0.0
 20
0.0
  9
$LIMMAX
 10
12.0
 20
9.0
  9
$ORTHOMODE
 70
     0
  9
$REGENMODE
 70
     1
  9
$FILLMODE
 70
     0
  9
$QTEXTMODE
 70
     0
  9
$MIRRTEXT
 70
     1
  9
$DRAGMODE
 70
     2
  9
$LTSCALE
 40
5.588
  9
$OSMODE
 70
     0
  9
$ATTMODE
 70
     1
  9
$TEXTSIZE
 40
0.2
  9
$TRACEWID
 40
0.05
  9
$TEXTSTYLE
  7
STANDARD
  9
$CLAYER
  8
0
  9
$CELTYPE
  6
BYLAYER
  9
$CECOLOR
 62
   256
  9
$CELTSCALE
 40
1.0
  9
$DELOBJ
 70
     1
  9
$DISPSILH
 70
     0
  9
$DIMSCALE
 40
1.0
  9
$DIMASZ
 40
0.18
  9
$DIMEXO
 40
0.0625
  9
$DIMDLI
 40
0.38
  9
$DIMRND
 40
0.0
  9
$DIMDLE
 40
0.0
  9
$DIMEXE
 40
0.18
  9
$DIMTP
 40
0.0
  9
$DIMTM
 40
0.0
  9
$DIMTXT
 40
0.18
  9
$DIMCEN
 40
0.09
  9
$DIMTSZ
 40
0.0
  9
$DIMTOL
 70
     0
  9
$DIMLIM
 70
     0
  9
$DIMTIH
 70
     0
  9
$DIMTOH
 70
     0
  9
$DIMSE1
 70
     0
  9
$DIMSE2
 70
     0
  9
$DIMTAD
 70
     1
  9
$DIMZIN
 70
     0
  9
$DIMBLK
  1

  9
$DIMASO
 70
     1
  9
$DIMSHO
 70
     1
  9
$DIMPOST
  1

  9
$DIMAPOST
  1

  9
$DIMALT
 70
     0
  9
$DIMALTD
 70
     2
  9
$DIMALTF
 40
25.4
  9
$DIMLFAC
 40
1.0
  9
$DIMTOFL
 70
     0
  9
$DIMTVP
 40
0.0
  9
$DIMTIX
 70
     0
  9
$DIMSOXD
 70
     0
  9
$DIMSAH
 70
     0
  9
$DIMBLK1
  1

  9
$DIMBLK2
  1

  9
$DIMSTYLE
  2
STANDARD
  9
$DIMCLRD
 70
     0
  9
$DIMCLRE
 70
     0
  9
$DIMCLRT
 70
     0
  9
$DIMTFAC
 40
1.0
  9
$DIMGAP
 40
0.09
  9
$DIMJUST
 70
     0
  9
$DIMSD1
 70
     0
  9
$DIMSD2
 70
     0
  9
$DIMTOLJ
 70
     1
  9
$DIMTZIN
 70
     0
  9
$DIMALTZ
 70
     0
  9
$DIMALTTZ
 70
     0
  9
$DIMFIT
 70
     3
  9
$DIMUPT
 70
     0
  9
$DIMUNIT
 70
     2
  9
$DIMDEC
 70
     2
  9
$DIMTDEC
 70
     4
  9
$DIMALTU
 70
     2
  9
$DIMALTTD
 70
     2
  9
$DIMTXSTY
  7
STANDARD
  9
$DIMAUNIT
 70
     0
  9
$LUNITS
 70
     2
  9
$LUPREC
 70
     4
  9
$SKETCHINC
 40
0.1
  9
$FILLETRAD
 40
0.5
  9
$AUNITS
 70
     0
  9
$AUPREC
 70
     0
  9
$MENU
  1
.
  9
$ELEVATION
 40
0.0
  9
$PELEVATION
 40
0.0
  9
$THICKNESS
 40
0.0
  9
$LIMCHECK
 70
     0
  9
$BLIPMODE
 70
     0
  9
$CHAMFERA
 40
0.5
  9
$CHAMFERB
 40
0.5
  9
$CHAMFERC
 40
1.0
  9
$CHAMFERD
 40
0.0
  9
$SKPOLY
 70
     0
  9
$TDCREATE
 40
2450772.666465926
  9
$TDUPDATE
 40
2457654.834143507
  9
$TDINDWG
 40
0.0011564931
  9
$TDUSRTIMER
 40
0.0000000000
  9
$USRTIMER
 70
     1
  9
$ANGBASE
 50
0.0
  9
$ANGDIR
 70
     0
  9
$PDMODE
 70
     0
  9
$PDSIZE
 40
0.0
  9
$PLINEWID
 40
0.0
  9
$COORDS
 70
     1
  9
$SPLFRAME
 70
     0
  9
$SPLINETYPE
 70
     6
  9
$SPLINESEGS
 70
     8
  9
$ATTDIA
 70
     0
  9
$ATTREQ
 70
     1
  9
$HANDLING
 70
     1
  9
$HANDSEED
  5
2C6
  9
$SURFTAB1
 70
     6
  9
$SURFTAB2
 70
     6
  9
$SURFTYPE
 70
     6
  9
$SURFU
 70
     6
  9
$SURFV
 70
     6
  9
$UCSNAME
  2

  9
$UCSORG
 10
0.0
 20
0.0
 30
0.0
  9
$UCSXDIR
 10
1.0
 20
0.0
 30
0.0
  9
$UCSYDIR
 10
0.0
 20
1.0
 30
0.0
  9
$PUCSNAME
  2

  9
$PUCSORG
 10
0.0
 20
0.0
 30
0.0
  9
$PUCSXDIR
 10
1.0
 20
0.0
 30
0.0
  9
$PUCSYDIR
 10
0.0
 20
1.0
 30
0.0
  9
$USERI1
 70
     0
  9
$USERI2
 70
     0
  9
$USERI3
 70
     0
  9
$USERI4
 70
     0
  9
$USERI5
 70
     0
  9
$USERR1
 40
0.0
  9
$USERR2
 40
0.0
  9
$USERR3
 40
0.0
  9
$USERR4
 40
0.0
  9
$USERR5
 40
0.0
  9
$WORLDVIEW
 70
     1
  9
$SHADEDGE
 70
     3
  9
$SHADEDIF
 70
    70
  9
$TILEMODE
 70
     1
  9
$MAXACTVP
 70
    48
  9
$PINSBASE
 10
0.0
 20
0.0
 30
0.0
  9
$PLIMCHECK
 70
     0
  9
$PEXTMIN
 10
0.0
 20
0.0
 30
0.0
  9
$PEXTMAX
 10
0.0
 20
0.0
 30
0.0
  9
$PLIMMIN
 10
0.0
 20
0.0
  9
$PLIMMAX
 10
12.0
 20
9.0
  9
$UNITMODE
 70
     0
  9
$VISRETAIN
 70
     1
  9
$PLINEGEN
 70
     0
  9
$PSLTSCALE
 70
     1
  9
$TREEDEPTH
 70
  3020
  9
$PICKSTYLE
 70
     1
  9
$CMLSTYLE
  2
STANDARD
  9
$CMLJUST
 70
     0
  9
$CMLSCALE
 40
1.0
  9
$PROXYGRAPHICS
 70
     1
  9
$MEASUREMENT
 70
     0
  0
ENDSEC
  0
SECTION
  2
CLASSES
  0
CLASS
  1
LWPOLYLINE
  2
AcDbPolyline
  3
"AutoCAD"
 90
        0
280
     0
281
     1
  0
CLASS
  1
IMAGE
  2
AcDbRasterImage
  3
ISM
 90
      127
280
     0
281
     1
  0
CLASS
  1
OLE2FRAME
  2
AcDbOle2Frame
  3
""
 90
        0
280
     0
281
     1
  0
CLASS
  1
HATCH
  2
AcDbHatch
  3
"ACAD_SEDONA"
 90
        0
280
     0
281
     1
  0
CLASS
  1
DICTIONARYVAR
  2
AcDbDictionaryVar
  3
"AutoCAD"
 90
        0
280
     0
281
     0
  0
CLASS
  1
RASTERVARIABLES
  2
AcDbRasterVariables
  3
ISM
 90
        0
280
     0
281
     0
  0
CLASS
  1
IMAGEDEF
  2
AcDbRasterImageDef
  3
ISM
 90
        0
280
     0
281
     0
  0
CLASS
  1
IMAGEDEF_REACTOR
  2
AcDbRasterImageDefReactor
  3
ISM
 90
        1
280
     0
281
     0
  0
CLASS
  1
IDBUFFER
  2
AcDbIdBuffer
  3
"Acad"
 90
        0
280
     0
281
     0
  0
CLASS
  1
SPATIAL_FILTER
  2
AcDbSpatialFilter
  3
"Acad"
 90
        0
280
     0
281
     0
  0
CLASS
  1
XRECORD
  2
AcDbXrecord
  3
"<Built In>"
 90
        0
280
     0
281
     0
  0
CLASS
  1
SORTENTSTABLE
  2
AcDbSortentsTable
  3
"AutoCAD"
 90
        0
280
     0
281
     0
  0
CLASS
  1
LAYER_INDEX
  2
AcDbLayerIndex
  3
"Acad"
 90
        0
280
     0
281
     0
  0
CLASS
  1
SPATIAL_INDEX
  2
AcDbSpatialIndex
  3
"Acad"
 90
        0
280
     0
281
     0
  0
CLASS
  1
OBJECT_PTR
  2
CAseDLPNTableRecord
  3
"ASE-LPNTableRecord"
 90
        1
280
     0
281
     0
  0
CLASS
  1
LAYOUT
  2
AcDbLayout
  3
"AutoCAD 2000"
 90
        1
280
     0
281
     0
  0
CLASS
  1
PLOTSETTINGS
  2
AcDbPlotSettings
  3
"AutoCAD 2000"
 90
        1
280
     0
281
     0
  0
CLASS
  1
ACDBDICTIONARYWDFLT
  2
AcDbDictionaryWithDefault
  3
"AutoCAD 2000"
 90
        1
280
     0
281
     0
  0
CLASS
  1
ACDBPLACEHOLDER
  2
AcDbPlaceHolder
  3
"AutoCAD 2000"
 90
        1
280
     0
281
     0
  0
CLASS
  1
VBA_PROJECT
  2
AcDbVbaProject
  3
"acadvba"
 90
        1
280
     0
281
     0
  0
CLASS
  1
WIPEOUT
  2
AcDbWipeout
  3
WipeOut|AutoCAD Express Tool|expresstools@autodesk.com
 90
      127
280
     0
281
     1
  0
CLASS
  1
WIPEOUTVARIABLES
  2
AcDbWipeoutVariables
  3
WipeOut|AutoCAD Express Tool|expresstools@autodesk.com
 90
        0
280
     0
281
     0
  0
CLASS
  1
RTEXT
  2
RText
  3
RText|AutoCAD Express Tool|expresstools@autodesk.com
 90
        0
280
     0
281
     1
  0
CLASS
  1
ARCALIGNEDTEXT
  2
AcDbArcAlignedText
  3
ATEXT|AutoCAD Express Tool|expresstools@autodesk.com
 90
        0
280
     0
281
     1
  0
ENDSEC
  0
SECTION
  2
TABLES
  0
TABLE
  2
VPORT
  5
8
100
AcDbSymbolTable
 70
     1
  0
VPORT
  5
25
100
AcDbSymbolTableRecord
100
AcDbViewportTableRecord
  2
*ACTIVE
 70
     0
 10
0.0
 20
0.0
 11
1.0
 21
1.0
 12
279.4
 22
215.9
 13
0.0
 23
0.0
 14
0.5
 24
0.5
 15
0.5
 25
0.5
 16
0.0
 26
0.0
 36
1.0
 17
0.0
 27
0.0
 37
0.0
 40
431.8
 41
1.294118
 42
50.0
 43
0.0
 44
0.0
 50
0.0
 51
0.0
 71
     0
 72
   100
 73
     1
 74
     1
 75
     0
 76
     0
 77
     0
 78
     0
  0
ENDTAB
  0
TABLE
  2
LTYPE
  5
5
100
AcDbSymbolTable
 70
     6
  0
LTYPE
  5
12
100
AcDbSymbolTableRecord
100
AcDbLinetypeTableRecord
  2
BYBLOCK
 70
    64
  3

 72
    65
 73
     0
 40
0.0
  0
LTYPE
  5
13
100
AcDbSymbolTableRecord
100
AcDbLinetypeTableRecord
  2
BYLAYER
 70
    64
  3

 72
    65
 73
     0
 40
0.0
  0
LTYPE
  5
14
100
AcDbSymbolTableRecord
100
AcDbLinetypeTableRecord
  2
CONTINUOUS
 70
     0
  3
Solid line
 72
    65
 73
     0
 40
0.0
  0
LTYPE
  5
145
100
AcDbSymbolTableRecord
100
AcDbLinetypeTableRecord
  2
DASHDOT
 70
     0
  3
DASHDOT
 72
    65
 73
     4
 40
1.0
 49
0.5
 74
     0
 49
-0.25
 74
     0
 49
0.0
 74
     0
 49
-0.25
 74
     0
  0
LTYPE
  5
1A1
100
AcDbSymbolTableRecord
100
AcDbLinetypeTableRecord
  2
DASHEDX2
 70
     0
  3
DASHEDX2
 72
    65
 73
     2
 40
1.25
 49
0.75
 74
     0
 49
-0.5
 74
     0
  0
LTYPE
  5
205
100
AcDbSymbolTableRecord
100
AcDbLinetypeTableRecord
  2
DOT
 70
     0
  3
DOT
 72
    65
 73
     2
 40
0.25
 49
0.0
 74
     0
 49
-0.25
 74
     0
  0
ENDTAB
  0
TABLE
  2
LAYER
  5
2
100
AcDbSymbolTable
 70
     1
  0
LAYER
  5
E
100
AcDbSymbolTableRecord
100
AcDbLayerTableRecord
  2
0
 70
     0
 62
     7
  6
CONTINUOUS
  0
ENDTAB
  0
TABLE
  2
STYLE
  5
3
100
AcDbSymbolTable
 70
     1
  0
STYLE
  5
F
100
AcDbSymbolTableRecord
100
AcDbTextStyleTableRecord
  2
STANDARD
 70
     0
 40
0.0
 41
1.0
 50
0.0
 71
     0
 42
0.2
  3
txt.shx
  4

  0
ENDTAB
  0
TABLE
  2
VIEW
  5
6
100
AcDbSymbolTable
 70
     0
  0
ENDTAB
  0
TABLE
  2
UCS
  5
7
100
AcDbSymbolTable
 70
     0
  0
ENDTAB
  0
TABLE
  2
APPID
  5
9
100
AcDbSymbolTable
 70
     1
  0
APPID
  5
10
100
AcDbSymbolTableRecord
100
AcDbRegAppTableRecord
  2
ACAD
 70
     0
  0
ENDTAB
  0
TABLE
  2
DIMSTYLE
  5
A
100
AcDbSymbolTable
 70
     1
  0
DIMSTYLE
105
1D
100
AcDbSymbolTableRecord
100
AcDbDimStyleTableRecord
  2
STANDARD
 70
     0
  3

  4

  5

  6

  7

 40
1.0
 41
0.18
 42
0.0625
 43
0.38
 44
0.18
 45
0.0
 46
0.0
 47
0.0
 48
0.0
 71
     0
 72
     0
 73
     1
 74
     1
 75
     0
 76
     0
 77
     0
 78
     0
140
0.18
141
0.09
142
0.0
143
25.4
144
1.0
145
0.0
146
1.0
147
0.09
170
     0
171
     2
172
     0
173
     0
174
     0
175
     0
176
     0
177
     0
178
     0
270
     2
271
     4
272
     4
273
     2
274
     2
275
     0
280
     0
281
     0
282
     0
283
     1
284
     0
285
     0
286
     0
287
     3
288
     0
340
F
  0
ENDTAB
  0
TABLE
  2
BLOCK_RECORD
  5
1
100
AcDbSymbolTable
 70
    53
  0
BLOCK_RECORD
  5
18
100
AcDbSymbolTableRecord
100
AcDbBlockTableRecord
  2
*MODEL_SPACE
  0
BLOCK_RECORD
  5
15
100
AcDbSymbolTableRecord
100
AcDbBlockTableRecord
  2
*PAPER_SPACE
  0
BLOCK_RECORD
  5
88
100
AcDbSymbolTableRecord
100
AcDbBlockTableRecord
  2
SMARTCARD__SICH__ID-KTE
  0
BLOCK_RECORD
  5
8B
100
AcDbSymbolTableRecord
100
AcDbBlockTableRecord
  2
TELEARBEITER-_HAUS
  0
BLOCK_RECORD
  5
8E
100
AcDbSymbolTableRecord
100
AcDbBlockTableRecord
  2
HEIMB\U+00FCRO
  0
BLOCK_RECORD
  5
91
100
AcDbSymbolTableRecord
100
AcDbBlockTableRecord
  2
WOLKE
  0
BLOCK_RECORD
  5
94
100
AcDbSymbolTableRecord
100
AcDbBlockTableRecord
  2
DF\U+00DC-_VERBINDUNG
  0
BLOCK_RECORD
  5
99
100
AcDbSymbolTableRecord
100
AcDbBlockTableRecord
  2
LAPTOP
  0
BLOCK_RECORD
  5
B4
100
AcDbSymbolTableRecord
100
AcDbBlockTableRecord
  2
2D-DOPPEL
  0
BLOCK_RECORD
  5
B8
100
AcDbSymbolTableRecord
100
AcDbBlockTableRecord
  2
KREIS
  0
BLOCK_RECORD
  5
C1
100
AcDbSymbolTableRecord
100
AcDbBlockTableRecord
  2
HORIZONTALER_BALKEN
  0
BLOCK_RECORD
  5
C9
100
AcDbSymbolTableRecord
100
AcDbBlockTableRecord
  2
MODEM-BANK
  0
BLOCK_RECORD
  5
CC
100
AcDbSymbolTableRecord
100
AcDbBlockTableRecord
  2
KABELMODEMS
  0
BLOCK_RECORD
  5
CF
100
AcDbSymbolTableRecord
100
AcDbBlockTableRecord
  2
SENDETURM
  0
BLOCK_RECORD
  5
E7
100
AcDbSymbolTableRecord
100
AcDbBlockTableRecord
  2
ORT
  0
BLOCK_RECORD
  5
121
100
AcDbSymbolTableRecord
100
AcDbBlockTableRecord
  2
FELD
  0
BLOCK_RECORD
  5
125
100
AcDbSymbolTableRecord
100
AcDbBlockTableRecord
  2
MASTER_17
  0
BLOCK_RECORD
  5
12B
100
AcDbSymbolTableRecord
100
AcDbBlockTableRecord
  2
MASTER_18
  0
BLOCK_RECORD
  5
133
100
AcDbSymbolTableRecord
100
AcDbBlockTableRecord
  2
MASTER_19
  0
BLOCK_RECORD
  5
137
100
AcDbSymbolTableRecord
100
AcDbBlockTableRecord
  2
MASTER_20
  0
BLOCK_RECORD
  5
13B
100
AcDbSymbolTableRecord
100
AcDbBlockTableRecord
  2
MA\U+00DF
  0
BLOCK_RECORD
  5
143
100
AcDbSymbolTableRecord
100
AcDbBlockTableRecord
  2
M-LINIE
  0
BLOCK_RECORD
  5
148
100
AcDbSymbolTableRecord
100
AcDbBlockTableRecord
  2
BOHRKREIS
  0
BLOCK_RECORD
  5
14D
100
AcDbSymbolTableRecord
100
AcDbBlockTableRecord
  2
MATRIX
  0
BLOCK_RECORD
  5
172
100
AcDbSymbolTableRecord
100
AcDbBlockTableRecord
  2
BOHRUNG2
  0
BLOCK_RECORD
  5
17A
100
AcDbSymbolTableRecord
100
AcDbBlockTableRecord
  2
TRENNER
  0
BLOCK_RECORD
  5
17E
100
AcDbSymbolTableRecord
100
AcDbBlockTableRecord
  2
KREIS_27
  0
BLOCK_RECORD
  5
185
100
AcDbSymbolTableRecord
100
AcDbBlockTableRecord
  2
BOHRUNG
  0
BLOCK_RECORD
  5
18A
100
AcDbSymbolTableRecord
100
AcDbBlockTableRecord
  2
TEXT
  0
BLOCK_RECORD
  5
193
100
AcDbSymbolTableRecord
100
AcDbBlockTableRecord
  2
MASTER_30
  0
BLOCK_RECORD
  5
197
100
AcDbSymbolTableRecord
100
AcDbBlockTableRecord
  2
MASTER_31
  0
BLOCK_RECORD
  5
19B
100
AcDbSymbolTableRecord
100
AcDbBlockTableRecord
  2
MASTER_32
  0
BLOCK_RECORD
  5
19F
100
AcDbSymbolTableRecord
100
AcDbBlockTableRecord
  2
P-LINIE
  0
BLOCK_RECORD
  5
1A4
100
AcDbSymbolTableRecord
100
AcDbBlockTableRecord
  2
MASTER_34
  0
BLOCK_RECORD
  5
1A8
100
AcDbSymbolTableRecord
100
AcDbBlockTableRecord
  2
RECTANGLE_153
  0
BLOCK_RECORD
  5
1AC
100
AcDbSymbolTableRecord
100
AcDbBlockTableRecord
  2
CIRCLE_168
  0
BLOCK_RECORD
  5
1B0
100
AcDbSymbolTableRecord
100
AcDbBlockTableRecord
  2
MASTER_37
  0
BLOCK_RECORD
  5
1B4
100
AcDbSymbolTableRecord
100
AcDbBlockTableRecord
  2
M-LINIE_193
  0
BLOCK_RECORD
  5
1B8
100
AcDbSymbolTableRecord
100
AcDbBlockTableRecord
  2
FLEX
  0
BLOCK_RECORD
  5
1C0
100
AcDbSymbolTableRecord
100
AcDbBlockTableRecord
  2
MASTER_40
  0
BLOCK_RECORD
  5
1E5
100
AcDbSymbolTableRecord
100
AcDbBlockTableRecord
  2
MASTER_41
  0
BLOCK_RECORD
  5
1EA
100
AcDbSymbolTableRecord
100
AcDbBlockTableRecord
  2
MASTER_42
  0
BLOCK_RECORD
  5
1F2
100
AcDbSymbolTableRecord
100
AcDbBlockTableRecord
  2
MASTER_43
  0
BLOCK_RECORD
  5
1FE
100
AcDbSymbolTableRecord
100
AcDbBlockTableRecord
  2
FLACHKOPF_OBEN
  0
BLOCK_RECORD
  5
209
100
AcDbSymbolTableRecord
100
AcDbBlockTableRecord
  2
MASTER_45
  0
BLOCK_RECORD
  5
20D
100
AcDbSymbolTableRecord
100
AcDbBlockTableRecord
  2
ACHTECK
  0
BLOCK_RECORD
  5
211
100
AcDbSymbolTableRecord
100
AcDbBlockTableRecord
  2
MASTER_47
  0
BLOCK_RECORD
  5
267
100
AcDbSymbolTableRecord
100
AcDbBlockTableRecord
  2
MASTER_48
  0
BLOCK_RECORD
  5
27C
100
AcDbSymbolTableRecord
100
AcDbBlockTableRecord
  2
SUBTITLE
  0
BLOCK_RECORD
  5
280
100
AcDbSymbolTableRecord
100
AcDbBlockTableRecord
  2
RAHMEN
  0
BLOCK_RECORD
  5
2A5
100
AcDbSymbolTableRecord
100
AcDbBlockTableRecord
  2
MASTER_51
  0
BLOCK_RECORD
  5
2A9
100
AcDbSymbolTableRecord
100
AcDbBlockTableRecord
  2
TITLE
  0
BLOCK_RECORD
  5
2AD
100
AcDbSymbolTableRecord
100
AcDbBlockTableRecord
  2
DESCRIPTION
  0
BLOCK_RECORD
  5
2B1
100
AcDbSymbolTableRecord
100
AcDbBlockTableRecord
  2
MASTER_54
  0
BLOCK_RECORD
  5
2B9
100
AcDbSymbolTableRecord
100
AcDbBlockTableRecord
  2
MASTER_55
  0
ENDTAB
  0
ENDSEC
  0
SECTION
  2
BLOCKS
  0
BLOCK
  5
19
100
AcDbEntity
  8
0
100
AcDbBlockBegin
  2
*MODEL_SPACE
 70
     0
 10
0.0
 20
0.0
 30
0.0
  3
*MODEL_SPACE
  1

  0
ENDBLK
  5
1A
100
AcDbEntity
  8
0
100
AcDbBlockEnd
  0
BLOCK
  5
16
100
AcDbEntity
 67
     1
  8
0
100
AcDbBlockBegin
  2
*PAPER_SPACE
 70
     0
 10
0.0
 20
0.0
 30
0.0
  3
*PAPER_SPACE
  1

  0
ENDBLK
  5
17
100
AcDbEntity
 67
     1
  8
0
100
AcDbBlockEnd
  0
BLOCK
  5
89
100
AcDbEntity
  8
0
100
AcDbBlockBegin
  2
SMARTCARD__SICH__ID-KTE
 70
     0
 10
0.0
 20
0.0
 30
0.0
  3
SMARTCARD__SICH__ID-KTE
  1

  0
ENDBLK
  5
8A
100
AcDbEntity
  8
0
100
AcDbBlockEnd
  0
BLOCK
  5
8C
100
AcDbEntity
  8
0
100
AcDbBlockBegin
  2
TELEARBEITER-_HAUS
 70
     0
 10
0.0
 20
0.0
 30
0.0
  3
TELEARBEITER-_HAUS
  1

  0
ENDBLK
  5
8D
100
AcDbEntity
  8
0
100
AcDbBlockEnd
  0
BLOCK
  5
8F
100
AcDbEntity
  8
0
100
AcDbBlockBegin
  2
HEIMB\U+00FCRO
 70
     0
 10
0.0
 20
0.0
 30
0.0
  3
HEIMB\U+00FCRO
  1

  0
ENDBLK
  5
90
100
AcDbEntity
  8
0
100
AcDbBlockEnd
  0
BLOCK
  5
92
100
AcDbEntity
  8
0
100
AcDbBlockBegin
  2
WOLKE
 70
     0
 10
0.0
 20
0.0
 30
0.0
  3
WOLKE
  1

  0
ENDBLK
  5
93
100
AcDbEntity
  8
0
100
AcDbBlockEnd
  0
BLOCK
  5
95
100
AcDbEntity
  8
0
100
AcDbBlockBegin
  2
DF\U+00DC-_VERBINDUNG
 70
     0
 10
0.0
 20
0.0
 30
0.0
  3
DF\U+00DC-_VERBINDUNG
  1

  0
LWPOLYLINE
  5
96
102
{ACAD_REACTORS
330
97
102
}
100
AcDbEntity
  8
0
  6
CONTINUOUS
 62
     7
100
AcDbPolyline
 90
        6
 70
     1
 10
0.169333
 20
9.553222
 10
16.044333
 20
12.728222
 10
13.663083
 20
8.283222
 10
25.569333
 20
9.553222
 10
9.694333
 20
6.378222
 10
12.075583
 20
10.823222
  0
HATCH
  5
97
100
AcDbEntity
  8
0
 62
     2
100
AcDbHatch
 10
0.0
 20
0.0
 30
0.0
210
0.0
220
0.0
230
1.0
  2
SOLID
 70
     1
 71
     1
 91
        1
 92
        3
 72
     0
 73
     1
 93
        6
 10
0.1693333333333344
 20
9.5532222222222192
 10
16.044333333333334
 20
12.72822222222222
 10
13.663083333333333
 20
8.283222222222216
 10
25.569333333333336
 20
9.5532222222222192
 10
9.6943333333333346
 20
6.3782222222222194
 10
12.075583333333334
 20
10.823222222222219
 97
       17
330
32
330
3C
330
3D
330
4B
330
4C
330
5A
330
5B
330
69
330
6A
330
74
330
76
330
77
330
78
330
79
330
7A
330
7B
330
96
 75
     0
 76
     1
 98
        0
  0
ENDBLK
  5
98
100
AcDbEntity
  8
0
100
AcDbBlockEnd
  0
BLOCK
  5
9A
100
AcDbEntity
  8
0
100
AcDbBlockBegin
  2
LAPTOP
 70
     2
 10
0.0
 20
0.0
 30
0.0
  3
LAPTOP
  1

  0
ATTDEF
  5
9B
100
AcDbEntity
  8
0
100
AcDbText
 10
15.0
 20
10.0
 30
0.0
 40
0.2
  1

100
AcDbAttributeDefinition
  3
Hersteller
  2
MANUFACTURER
 70
     0
  0
ATTDEF
  5
9C
100
AcDbEntity
  8
0
100
AcDbText
 10
15.0
 20
10.0
 30
0.0
 40
0.2
  1

100
AcDbAttributeDefinition
  3
Produktnummer
  2
PRODUCTNUMBER
 70
     0
  0
ATTDEF
  5
9D
100
AcDbEntity
  8
0
100
AcDbText
 10
15.0
 20
10.0
 30
0.0
 40
0.2
  1

100
AcDbAttributeDefinition
  3
Teilenummer
  2
PARTNUMBER
 70
     0
  0
ATTDEF
  5
9E
100
AcDbEntity
  8
0
100
AcDbText
 10
15.0
 20
10.0
 30
0.0
 40
0.2
  1

100
AcDbAttributeDefinition
  3
Produktbeschreibung
  2
PRODUCTDESCRIPTION
 70
     0
  0
ATTDEF
  5
9F
100
AcDbEntity
  8
0
100
AcDbText
 10
15.0
 20
10.0
 30
0.0
 40
0.2
  1

100
AcDbAttributeDefinition
  3
Inventarnummer
  2
ASSETNUMBER
 70
     0
  0
ATTDEF
  5
A0
100
AcDbEntity
  8
0
100
AcDbText
 10
15.0
 20
10.0
 30
0.0
 40
0.2
  1

100
AcDbAttributeDefinition
  3
Seriennummer
  2
SERIALNUMBER
 70
     0
  0
ATTDEF
  5
A1
100
AcDbEntity
  8
0
100
AcDbText
 10
15.0
 20
10.0
 30
0.0
 40
0.2
  1

100
AcDbAttributeDefinition
  3
Standort
  2
LOCATION
 70
     0
  0
ATTDEF
  5
A2
100
AcDbEntity
  8
0
100
AcDbText
 10
15.0
 20
10.0
 30
0.0
 40
0.2
  1

100
AcDbAttributeDefinition
  3
Geb\U+00E4ude
  2
BUILDING
 70
     0
  0
ATTDEF
  5
A3
100
AcDbEntity
  8
0
100
AcDbText
 10
15.0
 20
10.0
 30
0.0
 40
0.2
  1

100
AcDbAttributeDefinition
  3
Raum
  2
ROOM
 70
     0
  0
ATTDEF
  5
A4
100
AcDbEntity
  8
0
100
AcDbText
 10
15.0
 20
10.0
 30
0.0
 40
0.2
  1

100
AcDbAttributeDefinition
  3
Abteilung
  2
DEPARTMENT
 70
     0
  0
LINE
  5
A5
100
AcDbEntity
  8
0
  6
CONTINUOUS
 62
     7
100
AcDbLine
 10
10.833333
 20
9.166667
 30
0.0
 11
19.166667
 21
9.166667
 31
0.0
  0
LINE
  5
A6
100
AcDbEntity
  8
0
  6
CONTINUOUS
 62
     7
100
AcDbLine
 10
10.0
 20
5.833333
 30
0.0
 11
20.0
 21
5.833333
 31
0.0
  0
LWPOLYLINE
  5
A7
102
{ACAD_REACTORS
330
A8
102
}
100
AcDbEntity
  8
0
  6
CONTINUOUS
 62
     7
100
AcDbPolyline
 90
        8
 70
     1
 10
10.833333
 20
9.166667
 10
10.833333
 20
15.0
 10
19.166667
 20
15.0
 10
19.166667
 20
9.166667
 10
20.0
 20
5.833333
 10
20.0
 20
5.0
 10
10.0
 20
5.0
 10
10.0
 20
5.833333
  0
HATCH
  5
A8
100
AcDbEntity
  8
0
 62
   253
100
AcDbHatch
 10
0.0
 20
0.0
 30
0.0
210
0.0
220
0.0
230
1.0
  2
SOLID
 70
     1
 71
     1
 91
        1
 92
        3
 72
     0
 73
     1
 93
        8
 10
10.833333333333334
 20
9.1666666666666679
 10
10.833333333333334
 20
15.0
 10
19.166666666666668
 20
15.0
 10
19.166666666666668
 20
9.1666666666666679
 10
20.000000000000004
 20
5.8333333333333348
 10
20.000000000000004
 20
5.0000000000000018
 10
10.000000000000002
 20
5.0000000000000018
 10
10.000000000000002
 20
5.8333333333333348
 97
        1
330
A7
 75
     0
 76
     1
 98
        0
  0
LWPOLYLINE
  5
A9
102
{ACAD_REACTORS
330
AC
102
}
100
AcDbEntity
  8
0
  6
CONTINUOUS
 62
     7
100
AcDbPolyline
 90
        4
 70
     1
 10
10.885417
 20
8.125
 10
10.989584
 20
8.541667
 10
19.010417
 20
8.541667
 10
19.114584
 20
8.125
  0
LWPOLYLINE
  5
AA
102
{ACAD_REACTORS
330
AC
102
}
100
AcDbEntity
  8
0
  6
CONTINUOUS
 62
     7
100
AcDbPolyline
 90
        4
 70
     1
 10
10.416667
 20
6.25
 10
10.833333
 20
7.916667
 10
19.166667
 20
7.916667
 10
19.583333
 20
6.25
  0
LWPOLYLINE
  5
AB
102
{ACAD_REACTORS
330
AC
102
}
100
AcDbEntity
  8
0
  6
CONTINUOUS
 62
     7
100
AcDbPolyline
 90
        2
 70
     1
 10
17.916667
 20
10.416667
 42
-1.0
 10
18.333333
 20
10.416667
 42
-1.0
  0
HATCH
  5
AC
100
AcDbEntity
  8
0
 62
     7
100
AcDbHatch
 10
0.0
 20
0.0
 30
0.0
210
0.0
220
0.0
230
1.0
  2
SOLID
 70
     1
 71
     1
 91
        2
 92
        3
 72
     1
 73
     1
 93
        2
 10
17.916666666666668
 20
10.416666666666668
 42
-0.9999999999999932
 10
18.333333333333336
 20
10.416666666666668
 42
-1.0000000000000204
 97
        3
330
A9
330
AA
330
AB
 92
        3
 72
     0
 73
     1
 93
        4
 10
16.666666666666671
 20
5.2083333333333348
 10
19.583333333333336
 20
5.2083333333333348
 10
19.583333333333336
 20
5.6250000000000009
 10
16.666666666666671
 20
5.6250000000000009
 97
        1
330
AE
 75
     0
 76
     1
 98
        0
  0
LWPOLYLINE
  5
AD
100
AcDbEntity
  8
0
  6
CONTINUOUS
 62
     7
100
AcDbPolyline
 90
        4
 70
     1
 10
17.708333
 20
10.0
 10
18.541667
 20
10.0
 10
18.541667
 20
10.833333
 10
17.708333
 20
10.833333
  0
LWPOLYLINE
  5
AE
102
{ACAD_REACTORS
330
AC
102
}
100
AcDbEntity
  8
0
  6
CONTINUOUS
 62
     7
100
AcDbPolyline
 90
        4
 70
     1
 10
16.666667
 20
5.208333
 10
19.583333
 20
5.208333
 10
19.583333
 20
5.625
 10
16.666667
 20
5.625
  0
LWPOLYLINE
  5
AF
102
{ACAD_REACTORS
330
BE
102
}
100
AcDbEntity
  8
0
  6
CONTINUOUS
 62
     7
100
AcDbPolyline
 90
        4
 70
     1
 10
11.666667
 20
10.0
 10
17.5
 20
10.0
 10
17.5
 20
14.166667
 10
11.666667
 20
14.166667
  0
LWPOLYLINE
  5
B0
100
AcDbEntity
  8
0
  6
CONTINUOUS
 62
     7
100
AcDbPolyline
 90
        4
 70
     1
 10
11.25
 20
9.583333
 10
18.75
 20
9.583333
 10
18.75
 20
14.583333
 10
11.25
 20
14.583333
  0
LWPOLYLINE
  5
B1
100
AcDbEntity
  8
0
  6
CONTINUOUS
 62
     7
100
AcDbPolyline
 90
        4
 70
     1
 10
17.916667
 20
13.541667
 10
18.541667
 20
13.541667
 10
18.541667
 20
14.166667
 10
17.916667
 20
14.166667
  0
MTEXT
  5
B2
100
AcDbEntity
  8
0
100
AcDbMText
 10
15.0
 20
2.600483
 30
0.0
 40
4.109294
 41
28.222222
 71
     5
 72
     5
  1
\C7;\fArial|b0|i0|;\H4.1092942200601;Laptop
  0
ENDBLK
  5
B3
100
AcDbEntity
  8
0
100
AcDbBlockEnd
  0
BLOCK
  5
B5
100
AcDbEntity
  8
0
100
AcDbBlockBegin
  2
2D-DOPPEL
 70
     0
 10
0.0
 20
0.0
 30
0.0
  3
2D-DOPPEL
  1

  0
LWPOLYLINE
  5
B6
102
{ACAD_REACTORS
330
BE
102
}
100
AcDbEntity
  8
0
  6
CONTINUOUS
 62
     7
100
AcDbPolyline
 90
       10
 70
     1
 10
40.0
 20
55.0
 10
40.0
 20
60.0
 10
35.0
 20
50.0
 10
40.0
 20
40.0
 10
40.0
 20
45.0
 10
60.0
 20
45.0
 10
60.0
 20
40.0
 10
65.0
 20
50.0
 10
60.0
 20
60.0
 10
60.0
 20
55.0
  0
ENDBLK
  5
B7
100
AcDbEntity
  8
0
100
AcDbBlockEnd
  0
BLOCK
  5
B9
100
AcDbEntity
  8
0
100
AcDbBlockBegin
  2
KREIS
 70
     0
 10
0.0
 20
0.0
 30
0.0
  3
KREIS
  1

  0
LINE
  5
BA
102
{ACAD_REACTORS
330
BE
102
}
100
AcDbEntity
  8
0
  6
CONTINUOUS
 62
     7
100
AcDbLine
 10
17.393399
 20
11.393397
 30
0.0
 11
14.393398
 21
14.393398
 31
0.0
  0
LINE
  5
BB
102
{ACAD_REACTORS
330
BE
102
}
100
AcDbEntity
  8
0
  6
CONTINUOUS
 62
     7
100
AcDbLine
 10
14.393398
 20
14.393398
 30
0.0
 11
35.606602
 21
35.606602
 31
0.0
  0
LINE
  5
BC
102
{ACAD_REACTORS
330
BE
102
}
100
AcDbEntity
  8
0
  6
CONTINUOUS
 62
     7
100
AcDbLine
 10
35.606602
 20
35.606602
 30
0.0
 11
38.606603
 21
32.606601
 31
0.0
  0
ELLIPSE
  5
BD
102
{ACAD_REACTORS
330
BE
102
}
100
AcDbEntity
  8
0
  6
CONTINUOUS
 62
     7
100
AcDbEllipse
 10
27.717659
 20
22.282341
 30
0.0
 11
10.888943174760941
 21
-10.888943174760902
 31
0.0
210
0.0
220
0.0
230
1.0
 40
0.974398
 41
4.7383210749359765
 42
1.5448642322436092
  0
HATCH
  5
BE
100
AcDbEntity
  8
0
 62
   252
100
AcDbHatch
 10
0.0
 20
0.0
 30
0.0
210
0.0
220
0.0
230
1.0
  2
SOLID
 70
     1
 71
     1
 91
        1
 92
        1
 93
        4
 72
     1
 10
17.393399210548534
 20
11.393397353854754
 11
14.39339828220167
 21
14.393398282201606
 72
     1
 10
14.39339828220167
 20
14.393398282201606
 11
35.606601717798064
 21
35.606601717798078
 72
     1
 10
35.606601717798064
 20
35.606601717798078
 11
38.606602646144928
 21
32.606600789451221
 72
     3
 10
27.717659471384025
 20
22.282340528615691
 11
10.610169046785099
 21
10.610169046785137
 40
1.026274
 50
1.4858
 51
178.5142
 73
     0
 97
        6
330
AF
330
B6
330
BA
330
BB
330
BC
330
BD
 75
     0
 76
     1
 98
        0
  0
LWPOLYLINE
  5
BF
102
{ACAD_REACTORS
330
C4
102
}
100
AcDbEntity
  8
0
  6
CONTINUOUS
 62
     7
100
AcDbPolyline
 90
        2
 70
     1
 10
10.0
 20
25.0
 42
-1.0
 10
40.0
 20
25.0
 42
-1.0
  0
ENDBLK
  5
C0
100
AcDbEntity
  8
0
100
AcDbBlockEnd
  0
BLOCK
  5
C2
100
AcDbEntity
  8
0
100
AcDbBlockBegin
  2
HORIZONTALER_BALKEN
 70
     0
 10
0.0
 20
0.0
 30
0.0
  3
HORIZONTALER_BALKEN
  1

  0
LWPOLYLINE
  5
C3
102
{ACAD_REACTORS
330
C4
102
}
100
AcDbEntity
  8
0
  6
CONTINUOUS
 62
     7
100
AcDbPolyline
 90
        8
 70
     1
 10
10.0
 20
20.0
 10
40.0
 20
20.0
 10
40.0
 20
30.0
 10
43.0
 20
27.0
 10
43.0
 20
17.0
 10
40.0
 20
20.0
 10
43.0
 20
17.0
 10
13.0
 20
17.0
  0
HATCH
  5
C4
100
AcDbEntity
  8
0
 62
   252
100
AcDbHatch
 10
0.0
 20
0.0
 30
0.0
210
0.0
220
0.0
230
1.0
  2
SOLID
 70
     1
 71
     1
 91
        1
 92
        3
 72
     0
 73
     1
 93
        8
 10
9.9999999999999982
 20
20.0
 10
40.000000000000014
 20
20.0
 10
40.000000000000014
 20
30.0
 10
43.0
 20
27.0
 10
43.0
 20
17.0
 10
40.000000000000014
 20
20.0
 10
43.0
 20
17.0
 10
12.999999999999998
 20
17.0
 97
        2
330
BF
330
C3
 75
     0
 76
     1
 98
        0
  0
LWPOLYLINE
  5
C5
102
{ACAD_REACTORS
330
E1
102
}
100
AcDbEntity
  8
0
  6
CONTINUOUS
 62
     7
100
AcDbPolyline
 90
        4
 70
     1
 10
10.0
 20
20.042333
 10
40.0
 20
20.042333
 10
40.0
 20
29.957667
 10
10.0
 20
29.957667
  0
LWPOLYLINE
  5
C6
100
AcDbEntity
  8
0
  6
CONTINUOUS
 62
     7
100
AcDbPolyline
 90
        3
 70
     0
 10
10.0
 20
20.0
 10
10.0
 20
30.0
 10
40.0
 20
30.0
  0
LWPOLYLINE
  5
C7
100
AcDbEntity
  8
0
  6
CONTINUOUS
 62
     7
100
AcDbPolyline
 90
        3
 70
     0
 10
10.0
 20
20.0
 10
40.0
 20
20.0
 10
40.0
 20
30.0
  0
ENDBLK
  5
C8
100
AcDbEntity
  8
0
100
AcDbBlockEnd
  0
BLOCK
  5
CA
100
AcDbEntity
  8
0
100
AcDbBlockBegin
  2
MODEM-BANK
 70
     0
 10
0.0
 20
0.0
 30
0.0
  3
MODEM-BANK
  1

  0
ENDBLK
  5
CB
100
AcDbEntity
  8
0
100
AcDbBlockEnd
  0
BLOCK
  5
CD
100
AcDbEntity
  8
0
100
AcDbBlockBegin
  2
KABELMODEMS
 70
     0
 10
0.0
 20
0.0
 30
0.0
  3
KABELMODEMS
  1

  0
ENDBLK
  5
CE
100
AcDbEntity
  8
0
100
AcDbBlockEnd
  0
BLOCK
  5
D0
100
AcDbEntity
  8
0
100
AcDbBlockBegin
  2
SENDETURM
 70
     0
 10
0.0
 20
0.0
 30
0.0
  3
SENDETURM
  1

  0
LWPOLYLINE
  5
D1
100
AcDbEntity
  8
0
  6
CONTINUOUS
 62
    10
100
AcDbPolyline
 90
        4
 70
     0
 10
24.125
 20
35.590418
 10
22.346026
 20
35.719217
 10
23.278974
 20
36.316525
 10
21.5
 20
36.445325
  0
LWPOLYLINE
  5
D2
100
AcDbEntity
  8
0
  6
CONTINUOUS
 62
    10
100
AcDbPolyline
 90
        4
 70
     0
 10
28.5
 20
36.445325
 10
26.706127
 20
35.5
 10
27.231373
 20
36.535743
 10
25.4375
 20
35.590418
  0
LWPOLYLINE
  5
D3
100
AcDbEntity
  8
0
  6
CONTINUOUS
 62
    10
100
AcDbPolyline
 90
        4
 70
     0
 10
25.0
 20
36.017871
 10
24.5625
 20
38.155139
 10
25.4375
 20
37.300232
 10
25.0
 20
39.4375
  0
LWPOLYLINE
  5
D4
100
AcDbEntity
  8
0
  6
CONTINUOUS
 62
     7
100
AcDbPolyline
 90
        4
 70
     1
 10
21.5
 20
16.25
 10
25.0
 20
14.5
 10
28.5
 20
16.25
 10
25.0
 20
35.5
  0
LWPOLYLINE
  5
D5
100
AcDbEntity
  8
0
  6
CONTINUOUS
 62
     7
100
AcDbPolyline
 90
        3
 70
     0
 10
21.5
 20
16.25
 10
25.0
 20
18.0
 10
28.5
 20
16.25
  0
LWPOLYLINE
  5
D6
100
AcDbEntity
  8
0
  6
CONTINUOUS
 62
     7
100
AcDbPolyline
 90
        6
 70
     0
 10
25.0
 20
35.5
 10
25.0
 20
14.5
 10
21.5
 20
16.25
 10
25.0
 20
35.5
 10
28.5
 20
16.25
 10
25.0
 20
14.5
  0
LWPOLYLINE
  5
D7
100
AcDbEntity
  8
0
  6
CONTINUOUS
 62
     7
100
AcDbPolyline
 90
        3
 70
     0
 10
24.125
 20
30.6875
 10
25.0
 20
30.25
 10
25.875
 20
30.6875
  0
LWPOLYLINE
  5
D8
100
AcDbEntity
  8
0
  6
CONTINUOUS
 62
     7
100
AcDbPolyline
 90
        3
 70
     0
 10
23.833332
 20
29.083332
 10
25.0
 20
28.5
 10
26.175782
 20
29.074218
  0
LWPOLYLINE
  5
D9
100
AcDbEntity
  8
0
  6
CONTINUOUS
 62
     7
100
AcDbPolyline
 90
        3
 70
     0
 10
23.541668
 20
27.479168
 10
25.0
 20
26.75
 10
26.421876
 20
27.515626
  0
LWPOLYLINE
  5
DA
100
AcDbEntity
  8
0
  6
CONTINUOUS
 62
     7
100
AcDbPolyline
 90
        3
 70
     0
 10
23.25
 20
25.875
 10
25.0
 20
25.0
 10
26.75
 20
25.875
  0
LWPOLYLINE
  5
DB
100
AcDbEntity
  8
0
  6
CONTINUOUS
 62
     7
100
AcDbPolyline
 90
        3
 70
     0
 10
22.958332
 20
24.270832
 10
25.0
 20
23.25
 10
27.041668
 20
24.270832
  0
LWPOLYLINE
  5
DC
100
AcDbEntity
  8
0
  6
CONTINUOUS
 62
     7
100
AcDbPolyline
 90
        3
 70
     0
 10
22.666668
 20
22.666668
 10
25.0
 20
21.5
 10
27.296876
 20
22.703126
  0
LWPOLYLINE
  5
DD
100
AcDbEntity
  8
0
  6
CONTINUOUS
 62
     7
100
AcDbPolyline
 90
        3
 70
     0
 10
22.375
 20
21.0625
 10
25.0
 20
19.75
 10
27.625
 20
21.0625
  0
LWPOLYLINE
  5
DE
100
AcDbEntity
  8
0
  6
CONTINUOUS
 62
     7
100
AcDbPolyline
 90
        3
 70
     0
 10
22.083332
 20
19.458332
 10
25.0
 20
18.0
 10
27.925782
 20
19.449218
  0
LWPOLYLINE
  5
DF
100
AcDbEntity
  8
0
  6
CONTINUOUS
 62
     7
100
AcDbPolyline
 90
        3
 70
     0
 10
21.791668
 20
17.854168
 10
25.0
 20
16.25
 10
28.171876
 20
17.890626
  0
LWPOLYLINE
  5
E0
102
{ACAD_REACTORS
330
E1
102
}
100
AcDbEntity
  8
0
  6
CONTINUOUS
 62
     7
100
AcDbPolyline
 90
        6
 70
     1
 10
24.5625
 20
34.1875
 10
25.0
 20
34.625
 10
25.4375
 20
34.1875
 10
25.65625
 20
32.875
 10
25.0
 20
32.4375
 10
24.34375
 20
32.875
  0
HATCH
  5
E1
100
AcDbEntity
  8
0
 62
   250
100
AcDbHatch
 10
0.0
 20
0.0
 30
0.0
210
0.0
220
0.0
230
1.0
  2
SOLID
 70
     1
 71
     1
 91
        1
 92
        3
 72
     0
 73
     1
 93
        6
 10
24.5625
 20
34.187500000000007
 10
25.0
 20
34.625000000000007
 10
25.4375
 20
34.187500000000007
 10
25.656249999999996
 20
32.875
 10
25.0
 20
32.437500000000007
 10
24.34375
 20
32.875
 97
        2
330
C5
330
E0
 75
     0
 76
     1
 98
        0
  0
LWPOLYLINE
  5
E2
100
AcDbEntity
  8
0
  6
CONTINUOUS
 62
     2
100
AcDbPolyline
 90
        4
 70
     0
 10
24.125
 20
35.590418
 10
22.346026
 20
35.719217
 10
23.278974
 20
36.316525
 10
21.5
 20
36.445325
  0
LWPOLYLINE
  5
E3
100
AcDbEntity
  8
0
  6
CONTINUOUS
 62
     2
100
AcDbPolyline
 90
        4
 70
     0
 10
28.5
 20
36.445325
 10
26.706127
 20
35.5
 10
27.231373
 20
36.535743
 10
25.4375
 20
35.590418
  0
LWPOLYLINE
  5
E4
100
AcDbEntity
  8
0
  6
CONTINUOUS
 62
     2
100
AcDbPolyline
 90
        4
 70
     0
 10
25.0
 20
36.017871
 10
24.5625
 20
38.155139
 10
25.4375
 20
37.300232
 10
25.0
 20
39.4375
  0
MTEXT
  5
E5
100
AcDbEntity
  8
0
100
AcDbMText
 10
25.0
 20
12.100483
 30
0.0
 40
4.109294
 41
16.266029
 71
     5
 72
     5
  1
\C7;\fArial|b0|i0|;\H4.1092942200601;Send\Petur\Pm
  0
ENDBLK
  5
E6
100
AcDbEntity
  8
0
100
AcDbBlockEnd
  0
BLOCK
  5
E8
100
AcDbEntity
  8
0
100
AcDbBlockBegin
  2
ORT
 70
     0
 10
0.0
 20
0.0
 30
0.0
  3
ORT
  1

  0
ELLIPSE
  5
E9
102
{ACAD_REACTORS
330
EB
102
}
100
AcDbEntity
  8
0
  6
CONTINUOUS
 62
     7
100
AcDbEllipse
 10
25.0
 20
21.953125
 30
0.0
 11
7.4999999999999973
 21
0.0
 31
0.0
210
0.0
220
0.0
230
1.0
 40
0.34375
 41
-0.0000000000000004
 42
3.1415926535898078
  0
ELLIPSE
  5
EA
102
{ACAD_REACTORS
330
EB
102
}
100
AcDbEntity
  8
0
  6
CONTINUOUS
 62
     7
100
AcDbEllipse
 10
25.0
 20
21.953125
 30
0.0
 11
7.4999999999999973
 21
0.0
 31
0.0
210
0.0
220
0.0
230
1.0
 40
0.34375
 41
3.1415926535897927
 42
6.2831853071796004
  0
HATCH
  5
EB
100
AcDbEntity
  8
0
 62
   110
100
AcDbHatch
 10
0.0
 20
0.0
 30
0.0
210
0.0
220
0.0
230
1.0
  2
SOLID
 70
     1
 71
     1
 91
        1
 92
        1
 93
        2
 72
     3
 10
25.0
 20
21.953125000000004
 11
7.4999999999999973
 21
0.0
 40
0.34375
 50
180.0
 51
0.0
 73
     0
 72
     3
 10
25.0
 20
21.953125000000004
 11
7.4999999999999973
 21
0.0
 40
0.34375
 50
360.0
 51
540.0
 73
     0
 97
        2
330
E9
330
EA
 75
     0
 76
     1
 98
        0
  0
ELLIPSE
  5
EC
100
AcDbEntity
  8
0
  6
CONTINUOUS
 62
     7
100
AcDbEllipse
 10
25.0
 20
21.953125
 30
0.0
 11
7.4999999999999973
 21
0.0
 31
0.0
210
0.0
220
0.0
230
1.0
 40
0.34375
 41
-0.0000000000000004
 42
3.1415926535898078
  0
ELLIPSE
  5
ED
100
AcDbEntity
  8
0
  6
CONTINUOUS
 62
     7
100
AcDbEllipse
 10
25.0
 20
21.953125
 30
0.0
 11
7.4999999999999973
 21
0.0
 31
0.0
210
0.0
220
0.0
230
1.0
 40
0.34375
 41
3.1415926535897927
 42
6.2831853071796004
  0
LWPOLYLINE
  5
EE
102
{ACAD_REACTORS
330
EF
102
}
100
AcDbEntity
  8
0
  6
CONTINUOUS
 62
     7
100
AcDbPolyline
 90
        4
 70
     1
 10
26.875
 20
22.890625
 10
26.875
 20
24.296875
 10
29.453125
 20
24.296875
 10
29.453125
 20
22.890625
  0
HATCH
  5
EF
100
AcDbEntity
  8
0
 62
    54
100
AcDbHatch
 10
0.0
 20
0.0
 30
0.0
210
0.0
220
0.0
230
1.0
  2
SOLID
 70
     1
 71
     1
 91
        1
 92
        3
 72
     0
 73
     1
 93
        4
 10
26.874999999999996
 20
22.890625
 10
26.874999999999996
 20
24.296875
 10
29.453124999999996
 20
24.296875000000004
 10
29.453124999999996
 20
22.890625
 97
        1
330
EE
 75
     0
 76
     1
 98
        0
  0
LWPOLYLINE
  5
F0
102
{ACAD_REACTORS
330
F1
102
}
100
AcDbEntity
  8
0
  6
CONTINUOUS
 62
     7
100
AcDbPolyline
 90
        4
 70
     1
 10
29.453125
 20
24.296875
 10
29.453125
 20
22.890625
 10
30.15625
 20
23.59375
 10
30.15625
 20
25.0
  0
HATCH
  5
F1
100
AcDbEntity
  8
0
 62
    54
100
AcDbHatch
 10
0.0
 20
0.0
 30
0.0
210
0.0
220
0.0
230
1.0
  2
SOLID
 70
     1
 71
     1
 91
        1
 92
        3
 72
     0
 73
     1
 93
        4
 10
29.453125
 20
24.296875
 10
29.453125
 20
22.890625
 10
30.15625
 20
23.593750000000004
 10
30.15625
 20
25.0
 97
        1
330
F0
 75
     0
 76
     1
 98
        0
  0
LWPOLYLINE
  5
F2
102
{ACAD_REACTORS
330
F3
102
}
100
AcDbEntity
  8
0
  6
CONTINUOUS
 62
     7
100
AcDbPolyline
 90
        3
 70
     1
 10
29.453125
 20
24.296875
 10
29.6875
 20
25.234375
 10
30.15625
 20
25.0
  0
HATCH
  5
F3
100
AcDbEntity
  8
0
 62
   253
100
AcDbHatch
 10
0.0
 20
0.0
 30
0.0
210
0.0
220
0.0
230
1.0
  2
SOLID
 70
     1
 71
     1
 91
        1
 92
        3
 72
     0
 73
     1
 93
        3
 10
29.453125
 20
24.296875
 10
29.6875
 20
25.234374999999996
 10
30.15625
 20
25.0
 97
        1
330
F2
 75
     0
 76
     1
 98
        0
  0
LWPOLYLINE
  5
F4
102
{ACAD_REACTORS
330
F5
102
}
100
AcDbEntity
  8
0
  6
CONTINUOUS
 62
     7
100
AcDbPolyline
 90
        4
 70
     1
 10
29.6875
 20
25.234375
 10
27.34375
 20
25.234375
 10
26.875
 20
24.296875
 10
29.453125
 20
24.296875
  0
HATCH
  5
F5
100
AcDbEntity
  8
0
 62
   253
100
AcDbHatch
 10
0.0
 20
0.0
 30
0.0
210
0.0
220
0.0
230
1.0
  2
SOLID
 70
     1
 71
     1
 91
        1
 92
        3
 72
     0
 73
     1
 93
        4
 10
29.6875
 20
25.234374999999996
 10
27.343750000000004
 20
25.234374999999996
 10
26.875
 20
24.296875
 10
29.453125
 20
24.296875
 97
        1
330
F4
 75
     0
 76
     1
 98
        0
  0
LWPOLYLINE
  5
F6
102
{ACAD_REACTORS
330
F7
102
}
100
AcDbEntity
  8
0
  6
CONTINUOUS
 62
     7
100
AcDbPolyline
 90
        4
 70
     1
 10
18.90625
 20
22.421875
 10
18.90625
 20
27.109375
 10
22.1875
 20
27.109375
 10
22.1875
 20
22.421875
  0
HATCH
  5
F7
100
AcDbEntity
  8
0
 62
    32
100
AcDbHatch
 10
0.0
 20
0.0
 30
0.0
210
0.0
220
0.0
230
1.0
  2
SOLID
 70
     1
 71
     1
 91
        1
 92
        3
 72
     0
 73
     1
 93
        4
 10
18.906250000000007
 20
22.421875000000004
 10
18.906250000000007
 20
27.109375000000004
 10
22.1875
 20
27.109375000000004
 10
22.1875
 20
22.421875000000004
 97
        1
330
F6
 75
     0
 76
     1
 98
        0
  0
LWPOLYLINE
  5
F8
102
{ACAD_REACTORS
330
F9
102
}
100
AcDbEntity
  8
0
  6
CONTINUOUS
 62
     7
100
AcDbPolyline
 90
        4
 70
     1
 10
18.90625
 20
27.109375
 10
19.609375
 20
27.8125
 10
22.890625
 20
27.8125
 10
22.1875
 20
27.109375
  0
HATCH
  5
F9
100
AcDbEntity
  8
0
 62
   252
100
AcDbHatch
 10
0.0
 20
0.0
 30
0.0
210
0.0
220
0.0
230
1.0
  2
SOLID
 70
     1
 71
     1
 91
        1
 92
        3
 72
     0
 73
     1
 93
        4
 10
18.906250000000007
 20
27.109375000000004
 10
19.609375
 20
27.812499999999996
 10
22.890625
 20
27.812499999999996
 10
22.1875
 20
27.109375000000004
 97
        1
330
F8
 75
     0
 76
     1
 98
        0
  0
LWPOLYLINE
  5
FA
102
{ACAD_REACTORS
330
FB
102
}
100
AcDbEntity
  8
0
  6
CONTINUOUS
 62
     7
100
AcDbPolyline
 90
        4
 70
     1
 10
22.1875
 20
27.109375
 10
22.1875
 20
22.421875
 10
22.890625
 20
23.125
 10
22.890625
 20
27.8125
  0
HATCH
  5
FB
100
AcDbEntity
  8
0
 62
    14
100
AcDbHatch
 10
0.0
 20
0.0
 30
0.0
210
0.0
220
0.0
230
1.0
  2
SOLID
 70
     1
 71
     1
 91
        1
 92
        3
 72
     0
 73
     1
 93
        4
 10
22.1875
 20
27.109375
 10
22.1875
 20
22.421875
 10
22.890625
 20
23.124999999999993
 10
22.890625
 20
27.812499999999979
 97
        1
330
FA
 75
     0
 76
     1
 98
        0
  0
LWPOLYLINE
  5
FC
102
{ACAD_REACTORS
330
FD
102
}
100
AcDbEntity
  8
0
  6
CONTINUOUS
 62
     7
100
AcDbPolyline
 90
        4
 70
     1
 10
22.890625
 20
24.296875
 10
23.59375
 20
25.0
 10
28.75
 20
25.0
 10
28.046875
 20
24.296875
  0
HATCH
  5
FD
100
AcDbEntity
  8
0
 62
   254
100
AcDbHatch
 10
0.0
 20
0.0
 30
0.0
210
0.0
220
0.0
230
1.0
  2
SOLID
 70
     1
 71
     1
 91
        1
 92
        3
 72
     0
 73
     1
 93
        4
 10
22.890625
 20
24.296875
 10
23.593749999999996
 20
24.999999999999996
 10
28.749999999999996
 20
25.0
 10
28.046874999999993
 20
24.296875
 97
        1
330
FC
 75
     0
 76
     1
 98
        0
  0
LWPOLYLINE
  5
FE
102
{ACAD_REACTORS
330
FF
102
}
100
AcDbEntity
  8
0
  6
CONTINUOUS
 62
     7
100
AcDbPolyline
 90
        3
 70
     1
 10
26.640625
 20
27.34375
 10
27.578125
 20
30.625
 10
28.046875
 20
27.34375
  0
HATCH
  5
FF
100
AcDbEntity
  8
0
 62
     7
100
AcDbHatch
 10
0.0
 20
0.0
 30
0.0
210
0.0
220
0.0
230
1.0
  2
SOLID
 70
     1
 71
     1
 91
        1
 92
        3
 72
     0
 73
     1
 93
        3
 10
26.640625
 20
27.343749999999996
 10
27.578125
 20
30.625000000000007
 10
28.046875
 20
27.343749999999996
 97
        1
330
FE
 75
     0
 76
     1
 98
        0
  0
LWPOLYLINE
  5
100
102
{ACAD_REACTORS
330
101
102
}
100
AcDbEntity
  8
0
  6
CONTINUOUS
 62
     7
100
AcDbPolyline
 90
        3
 70
     1
 10
28.046875
 20
27.34375
 10
27.578125
 20
30.625
 10
28.75
 20
28.046875
  0
HATCH
  5
101
100
AcDbEntity
  8
0
 62
   252
100
AcDbHatch
 10
0.0
 20
0.0
 30
0.0
210
0.0
220
0.0
230
1.0
  2
SOLID
 70
     1
 71
     1
 91
        1
 92
        3
 72
     0
 73
     1
 93
        3
 10
28.046874999999993
 20
27.343749999999996
 10
27.578125
 20
30.624999999999982
 10
28.749999999999996
 20
28.046874999999993
 97
        1
330
100
 75
     0
 76
     1
 98
        0
  0
LWPOLYLINE
  5
102
102
{ACAD_REACTORS
330
103
102
}
100
AcDbEntity
  8
0
  6
CONTINUOUS
 62
     7
100
AcDbPolyline
 90
        4
 70
     1
 10
26.640625
 20
20.3125
 10
26.640625
 20
21.71875
 10
29.21875
 20
21.71875
 10
29.21875
 20
20.3125
  0
HATCH
  5
103
100
AcDbEntity
  8
0
 62
   253
100
AcDbHatch
 10
0.0
 20
0.0
 30
0.0
210
0.0
220
0.0
230
1.0
  2
SOLID
 70
     1
 71
     1
 91
        1
 92
        3
 72
     0
 73
     1
 93
        4
 10
26.640625
 20
20.312500000000004
 10
26.640625
 20
21.71875
 10
29.21875
 20
21.718750000000007
 10
29.21875
 20
20.312500000000004
 97
        1
330
102
 75
     0
 76
     1
 98
        0
  0
LWPOLYLINE
  5
104
102
{ACAD_REACTORS
330
105
102
}
100
AcDbEntity
  8
0
  6
CONTINUOUS
 62
     7
100
AcDbPolyline
 90
        4
 70
     1
 10
29.21875
 20
21.71875
 10
29.21875
 20
20.3125
 10
29.921875
 20
21.015625
 10
29.921875
 20
22.421875
  0
HATCH
  5
105
100
AcDbEntity
  8
0
 62
   253
100
AcDbHatch
 10
0.0
 20
0.0
 30
0.0
210
0.0
220
0.0
230
1.0
  2
SOLID
 70
     1
 71
     1
 91
        1
 92
        3
 72
     0
 73
     1
 93
        4
 10
29.21875
 20
21.71875
 10
29.21875
 20
20.3125
 10
29.921874999999996
 20
21.015625000000004
 10
29.921875000000004
 20
22.421875
 97
        1
330
104
 75
     0
 76
     1
 98
        0
  0
LWPOLYLINE
  5
106
102
{ACAD_REACTORS
330
107
102
}
100
AcDbEntity
  8
0
  6
CONTINUOUS
 62
     7
100
AcDbPolyline
 90
        3
 70
     1
 10
29.21875
 20
21.71875
 10
29.453125
 20
22.65625
 10
29.921875
 20
22.421875
  0
HATCH
  5
107
100
AcDbEntity
  8
0
 62
   253
100
AcDbHatch
 10
0.0
 20
0.0
 30
0.0
210
0.0
220
0.0
230
1.0
  2
SOLID
 70
     1
 71
     1
 91
        1
 92
        3
 72
     0
 73
     1
 93
        3
 10
29.21875
 20
21.71875
 10
29.453125
 20
22.656249999999996
 10
29.921874999999996
 20
22.421875
 97
        1
330
106
 75
     0
 76
     1
 98
        0
  0
LWPOLYLINE
  5
108
102
{ACAD_REACTORS
330
109
102
}
100
AcDbEntity
  8
0
  6
CONTINUOUS
 62
     7
100
AcDbPolyline
 90
        4
 70
     1
 10
18.4375
 20
20.78125
 10
18.4375
 20
22.1875
 10
21.015625
 20
22.1875
 10
21.015625
 20
20.78125
  0
HATCH
  5
109
100
AcDbEntity
  8
0
 62
   253
100
AcDbHatch
 10
0.0
 20
0.0
 30
0.0
210
0.0
220
0.0
230
1.0
  2
SOLID
 70
     1
 71
     1
 91
        1
 92
        3
 72
     0
 73
     1
 93
        4
 10
18.437499999999993
 20
20.781250000000004
 10
18.437499999999993
 20
22.1875
 10
21.015624999999993
 20
22.187500000000004
 10
21.015624999999993
 20
20.781250000000004
 97
        1
330
108
 75
     0
 76
     1
 98
        0
  0
LWPOLYLINE
  5
10A
102
{ACAD_REACTORS
330
10B
102
}
100
AcDbEntity
  8
0
  6
CONTINUOUS
 62
     7
100
AcDbPolyline
 90
        4
 70
     1
 10
21.015625
 20
22.1875
 10
21.015625
 20
20.78125
 10
21.71875
 20
21.484375
 10
21.71875
 20
22.890625
  0
HATCH
  5
10B
100
AcDbEntity
  8
0
 62
   253
100
AcDbHatch
 10
0.0
 20
0.0
 30
0.0
210
0.0
220
0.0
230
1.0
  2
SOLID
 70
     1
 71
     1
 91
        1
 92
        3
 72
     0
 73
     1
 93
        4
 10
21.015624999999996
 20
22.1875
 10
21.015624999999996
 20
20.78125
 10
21.71875
 20
21.484375000000004
 10
21.71875
 20
22.890625
 97
        1
330
10A
 75
     0
 76
     1
 98
        0
  0
LWPOLYLINE
  5
10C
102
{ACAD_REACTORS
330
10D
102
}
100
AcDbEntity
  8
0
  6
CONTINUOUS
 62
     7
100
AcDbPolyline
 90
        3
 70
     1
 10
21.015625
 20
22.1875
 10
21.25
 20
23.125
 10
21.71875
 20
22.890625
  0
HATCH
  5
10D
100
AcDbEntity
  8
0
 62
   253
100
AcDbHatch
 10
0.0
 20
0.0
 30
0.0
210
0.0
220
0.0
230
1.0
  2
SOLID
 70
     1
 71
     1
 91
        1
 92
        3
 72
     0
 73
     1
 93
        3
 10
21.015624999999993
 20
22.1875
 10
21.249999999999996
 20
23.125
 10
21.718749999999996
 20
22.890625
 97
        1
330
10C
 75
     0
 76
     1
 98
        0
  0
LWPOLYLINE
  5
10E
102
{ACAD_REACTORS
330
10F
102
}
100
AcDbEntity
  8
0
  6
CONTINUOUS
 62
     7
100
AcDbPolyline
 90
        4
 70
     1
 10
21.25
 20
23.125
 10
18.90625
 20
23.125
 10
18.4375
 20
22.1875
 10
21.015625
 20
22.1875
  0
HATCH
  5
10F
100
AcDbEntity
  8
0
 62
   253
100
AcDbHatch
 10
0.0
 20
0.0
 30
0.0
210
0.0
220
0.0
230
1.0
  2
SOLID
 70
     1
 71
     1
 91
        1
 92
        3
 72
     0
 73
     1
 93
        4
 10
21.249999999999996
 20
23.125
 10
18.906249999999996
 20
23.125000000000004
 10
18.437499999999996
 20
22.1875
 10
21.015624999999996
 20
22.1875
 97
        1
330
10E
 75
     0
 76
     1
 98
        0
  0
LWPOLYLINE
  5
110
102
{ACAD_REACTORS
330
111
102
}
100
AcDbEntity
  8
0
  6
CONTINUOUS
 62
     7
100
AcDbPolyline
 90
        4
 70
     1
 10
22.421875
 20
19.84375
 10
22.421875
 20
21.25
 10
25.0
 20
21.25
 10
25.0
 20
19.84375
  0
HATCH
  5
111
100
AcDbEntity
  8
0
 62
   171
100
AcDbHatch
 10
0.0
 20
0.0
 30
0.0
210
0.0
220
0.0
230
1.0
  2
SOLID
 70
     1
 71
     1
 91
        1
 92
        3
 72
     0
 73
     1
 93
        4
 10
22.421875
 20
19.84375
 10
22.421875
 20
21.25
 10
25.0
 20
21.250000000000007
 10
25.0
 20
19.84375
 97
        1
330
110
 75
     0
 76
     1
 98
        0
  0
LWPOLYLINE
  5
112
102
{ACAD_REACTORS
330
113
102
}
100
AcDbEntity
  8
0
  6
CONTINUOUS
 62
     7
100
AcDbPolyline
 90
        4
 70
     1
 10
25.0
 20
21.25
 10
25.0
 20
19.84375
 10
25.703125
 20
20.546875
 10
25.703125
 20
21.953125
  0
HATCH
  5
113
100
AcDbEntity
  8
0
 62
   171
100
AcDbHatch
 10
0.0
 20
0.0
 30
0.0
210
0.0
220
0.0
230
1.0
  2
SOLID
 70
     1
 71
     1
 91
        1
 92
        3
 72
     0
 73
     1
 93
        4
 10
25.0
 20
21.25
 10
25.0
 20
19.84375
 10
25.703125000000004
 20
20.546875000000004
 10
25.703125000000004
 20
21.953125
 97
        1
330
112
 75
     0
 76
     1
 98
        0
  0
LWPOLYLINE
  5
114
102
{ACAD_REACTORS
330
115
102
}
100
AcDbEntity
  8
0
  6
CONTINUOUS
 62
     7
100
AcDbPolyline
 90
        8
 70
     1
 10
28.046875
 20
24.068099
 10
28.046875
 20
24.296875
 10
28.046875
 20
27.34375
 10
26.640625
 20
27.34375
 10
26.640625
 20
24.296875
 10
22.890625
 20
24.296875
 10
22.890625
 20
21.953125
 10
28.046875
 20
21.953125
  0
HATCH
  5
115
100
AcDbEntity
  8
0
 62
   253
100
AcDbHatch
 10
0.0
 20
0.0
 30
0.0
210
0.0
220
0.0
230
1.0
  2
SOLID
 70
     1
 71
     1
 91
        1
 92
        3
 72
     0
 73
     1
 93
        8
 10
28.046874999999993
 20
24.068099402730414
 10
28.046874999999993
 20
24.296875
 10
28.046874999999993
 20
27.343750000000004
 10
26.640625
 20
27.343750000000004
 10
26.640625
 20
24.296875
 10
22.890625
 20
24.296875
 10
22.890625
 20
21.953125
 10
28.046874999999993
 20
21.953125
 97
        1
330
114
 75
     0
 76
     1
 98
        0
  0
LWPOLYLINE
  5
116
102
{ACAD_REACTORS
330
117
102
}
100
AcDbEntity
  8
0
  6
CONTINUOUS
 62
     7
100
AcDbPolyline
 90
        4
 70
     1
 10
25.234375
 20
22.1875
 10
22.890625
 20
22.1875
 10
22.421875
 20
21.25
 10
25.0
 20
21.25
  0
HATCH
  5
117
100
AcDbEntity
  8
0
 62
   253
100
AcDbHatch
 10
0.0
 20
0.0
 30
0.0
210
0.0
220
0.0
230
1.0
  2
SOLID
 70
     1
 71
     1
 91
        1
 92
        3
 72
     0
 73
     1
 93
        4
 10
25.234374999999996
 20
22.1875
 10
22.890624999999996
 20
22.1875
 10
22.421875
 20
21.25
 10
25.0
 20
21.25
 97
        1
330
116
 75
     0
 76
     1
 98
        0
  0
LWPOLYLINE
  5
118
102
{ACAD_REACTORS
330
119
102
}
100
AcDbEntity
  8
0
  6
CONTINUOUS
 62
     7
100
AcDbPolyline
 90
        3
 70
     1
 10
25.0
 20
21.25
 10
25.234375
 20
22.1875
 10
25.703125
 20
21.953125
  0
HATCH
  5
119
100
AcDbEntity
  8
0
 62
   253
100
AcDbHatch
 10
0.0
 20
0.0
 30
0.0
210
0.0
220
0.0
230
1.0
  2
SOLID
 70
     1
 71
     1
 91
        1
 92
        3
 72
     0
 73
     1
 93
        3
 10
24.999999999999993
 20
21.25
 10
25.234374999999996
 20
22.1875
 10
25.703124999999996
 20
21.953125
 97
        1
330
118
 75
     0
 76
     1
 98
        0
  0
LWPOLYLINE
  5
11A
102
{ACAD_REACTORS
330
11B
102
}
100
AcDbEntity
  8
0
  6
CONTINUOUS
 62
     7
100
AcDbPolyline
 90
        6
 70
     1
 10
28.75
 20
25.0
 10
28.75
 20
28.046875
 10
28.046875
 20
27.34375
 10
28.046875
 20
24.296875
 10
28.046875
 20
21.953125
 10
28.75
 20
22.65625
  0
HATCH
  5
11B
100
AcDbEntity
  8
0
 62
   252
100
AcDbHatch
 10
0.0
 20
0.0
 30
0.0
210
0.0
220
0.0
230
1.0
  2
SOLID
 70
     1
 71
     1
 91
        1
 92
        3
 72
     0
 73
     1
 93
        6
 10
28.749999999999996
 20
25.0
 10
28.749999999999996
 20
28.046874999999993
 10
28.046875
 20
27.343750000000004
 10
28.046875
 20
24.296875
 10
28.046875
 20
21.953125
 10
28.749999999999996
 20
22.656249999999996
 97
        1
330
11A
 75
     0
 76
     1
 98
        0
  0
LWPOLYLINE
  5
11C
102
{ACAD_REACTORS
330
11D
102
}
100
AcDbEntity
  8
0
  6
CONTINUOUS
 62
     7
100
AcDbPolyline
 90
        4
 70
     1
 10
29.453125
 20
22.65625
 10
27.109375
 20
22.65625
 10
26.640625
 20
21.71875
 10
29.21875
 20
21.71875
  0
HATCH
  5
11D
100
AcDbEntity
  8
0
 62
   253
100
AcDbHatch
 10
0.0
 20
0.0
 30
0.0
210
0.0
220
0.0
230
1.0
  2
SOLID
 70
     1
 71
     1
 91
        1
 92
        3
 72
     0
 73
     1
 93
        4
 10
29.453125
 20
22.656249999999996
 10
27.109375
 20
22.65625
 10
26.640625
 20
21.71875
 10
29.21875
 20
21.71875
 97
        1
330
11C
 75
     0
 76
     1
 98
        0
  0
LWPOLYLINE
  5
11E
100
AcDbEntity
  8
0
  6
CONTINUOUS
 62
     7
100
AcDbPolyline
 90
       15
 70
     0
 10
18.90625
 20
23.359375
 10
18.90625
 20
27.109375
 10
19.609375
 20
27.8125
 10
22.890625
 20
27.8125
 10
22.890625
 20
24.53125
 10
23.125
 20
24.53125
 10
23.59375
 20
25.0
 10
26.640625
 20
25.0
 10
26.640625
 20
27.34375
 10
27.578125
 20
30.625
 10
28.75
 20
28.046875
 10
28.75
 20
25.234375
 10
29.6875
 20
25.234375
 10
30.15625
 20
25.0
 10
30.15625
 20
23.828125
  0
MTEXT
  5
11F
100
AcDbEntity
  8
0
100
AcDbMText
 10
25.0
 20
16.975483
 30
0.0
 40
4.109294
 41
6.380101
 71
     5
 72
     5
  1
\C7;\fArial|b0|i0|;\H4.1092942200601;O\Prt
  0
ENDBLK
  5
120
100
AcDbEntity
  8
0
100
AcDbBlockEnd
  0
BLOCK
  5
122
100
AcDbEntity
  8
0
100
AcDbBlockBegin
  2
FELD
 70
     0
 10
0.0
 20
0.0
 30
0.0
  3
FELD
  1

  0
LWPOLYLINE
  5
123
100
AcDbEntity
  8
0
  6
CONTINUOUS
 62
     7
100
AcDbPolyline
 90
        4
 70
     1
 10
30.0
 20
35.0
 10
70.0
 20
35.0
 10
70.0
 20
65.0
 10
30.0
 20
65.0
  0
ENDBLK
  5
124
100
AcDbEntity
  8
0
100
AcDbBlockEnd
  0
BLOCK
  5
126
100
AcDbEntity
  8
0
100
AcDbBlockBegin
  2
MASTER_17
 70
     0
 10
0.0
 20
0.0
 30
0.0
  3
MASTER_17
  1

  0
LWPOLYLINE
  5
127
100
AcDbEntity
  8
0
  6
CONTINUOUS
 62
     7
100
AcDbPolyline
 90
        3
 70
     1
 10
0.0
 20
3.0
 10
2.4
 20
3.0
 10
2.4
 20
0.060612
 42
2.805884
  0
CIRCLE
  5
128
100
AcDbEntity
  8
0
  6
CONTINUOUS
 62
     7
100
AcDbCircle
 10
3.0
 20
3.0
 30
0.0
 40
2.85
  0
CIRCLE
  5
129
100
AcDbEntity
  8
0
  6
CONTINUOUS
 62
     7
100
AcDbCircle
 10
3.0
 20
3.0
 30
0.0
 40
2.4
  0
ENDBLK
  5
12A
100
AcDbEntity
  8
0
100
AcDbBlockEnd
  0
BLOCK
  5
12C
100
AcDbEntity
  8
0
100
AcDbBlockBegin
  2
MASTER_18
 70
     0
 10
0.0
 20
0.0
 30
0.0
  3
MASTER_18
  1

  0
LWPOLYLINE
  5
12D
100
AcDbEntity
  8
0
  6
CONTINUOUS
 62
     7
100
AcDbPolyline
 90
        2
 70
     1
 10
-11.533333
 20
0.0
 10
10.583333
 20
0.0
  0
LWPOLYLINE
  5
12E
100
AcDbEntity
  8
0
  6
CONTINUOUS
 62
     7
100
AcDbPolyline
 90
        2
 70
     1
 10
-11.533333
 20
27.0
 10
10.583333
 20
27.0
  0
LINE
  5
12F
100
AcDbEntity
  8
0
  6
CONTINUOUS
 62
     7
100
AcDbLine
 10
-7.3
 20
-8.46328
 30
0.0
 11
-7.3
 21
0.0
 31
0.0
  0
LINE
  5
130
100
AcDbEntity
  8
0
  6
CONTINUOUS
 62
     7
100
AcDbLine
 10
-7.3
 20
35.46328
 30
0.0
 11
-7.3
 21
27.0
 31
0.0
  0
MTEXT
  5
131
100
AcDbEntity
  8
0
100
AcDbMText
 10
-10.899564
 20
13.0
 30
0.0
 40
3.081935
 41
19.353684
 71
     5
 72
     5
  1
\C7;\fArial|b0|i0|;\H3.0819353945553;27,00mm
 11
0.0
 21
1.0
 31
0.0
  0
ENDBLK
  5
132
100
AcDbEntity
  8
0
100
AcDbBlockEnd
  0
BLOCK
  5
134
100
AcDbEntity
  8
0
100
AcDbBlockBegin
  2
MASTER_19
 70
     2
 10
0.0
 20
0.0
 30
0.0
  3
MASTER_19
  1

  0
LWPOLYLINE
  5
135
100
AcDbEntity
  8
0
  6
CONTINUOUS
 62
     7
100
AcDbPolyline
 90
        4
 70
     1
 10
0.0
 20
0.0
 10
40.0
 20
0.0
 10
40.0
 20
30.0
 10
0.0
 20
30.0
  0
ENDBLK
  5
136
100
AcDbEntity
  8
0
100
AcDbBlockEnd
  0
BLOCK
  5
138
100
AcDbEntity
  8
0
100
AcDbBlockBegin
  2
MASTER_20
 70
     0
 10
0.0
 20
0.0
 30
0.0
  3
MASTER_20
  1

  0
LWPOLYLINE
  5
139
100
AcDbEntity
  8
0
  6
CONTINUOUS
 62
     7
100
AcDbPolyline
 90
        2
 70
     1
 10
0.0
 20
20.0
 42
-1.0
 10
40.0
 20
20.0
 42
-1.0
  0
ENDBLK
  5
13A
100
AcDbEntity
  8
0
100
AcDbBlockEnd
  0
BLOCK
  5
13C
100
AcDbEntity
  8
0
100
AcDbBlockBegin
  2
MA\U+00DF
 70
     0
 10
0.0
 20
0.0
 30
0.0
  3
MA\U+00DF
  1

  0
LWPOLYLINE
  5
13D
100
AcDbEntity
  8
0
  6
CONTINUOUS
 62
     7
100
AcDbPolyline
 90
        2
 70
     1
 10
14.809829
 20
-10.380342
 10
19.526699
 20
-0.946602
  0
LWPOLYLINE
  5
13E
100
AcDbEntity
  8
0
  6
CONTINUOUS
 62
     7
100
AcDbPolyline
 90
        2
 70
     1
 10
-5.190171
 20
-0.380342
 10
-0.473301
 20
9.053398
  0
LINE
  5
13F
100
AcDbEntity
  8
0
  6
CONTINUOUS
 62
     7
100
AcDbLine
 10
5.756431
 20
-3.487138
 30
0.0
 11
15.756431
 21
-8.487138
 31
0.0
  0
LINE
  5
140
100
AcDbEntity
  8
0
  6
CONTINUOUS
 62
     7
100
AcDbLine
 10
5.756431
 20
-3.487138
 30
0.0
 11
-4.243569
 21
1.512862
 31
0.0
  0
MTEXT
  5
141
100
AcDbEntity
  8
0
100
AcDbMText
 10
9.666084
 20
-4.001164
 30
0.0
 40
3.081935
 41
9.676842
 71
     5
 72
     5
  1
\C7;\fArial|b0|i0|;\H3.0819353945553;22,3\P6mm
 11
0.894427
 21
-0.447214
 31
0.0
  0
ENDBLK
  5
142
100
AcDbEntity
  8
0
100
AcDbBlockEnd
  0
BLOCK
  5
144
100
AcDbEntity
  8
0
100
AcDbBlockBegin
  2
M-LINIE
 70
     2
 10
0.0
 20
0.0
 30
0.0
  3
M-LINIE
  1

  0
LINE
  5
146
100
AcDbEntity
  8
0
  6
DASHDOT
 62
     7
100
AcDbLine
 10
0.0
 20
5.0
 30
0.0
 11
8.0
 21
0.0
 31
0.0
  0
ENDBLK
  5
147
100
AcDbEntity
  8
0
100
AcDbBlockEnd
  0
BLOCK
  5
149
100
AcDbEntity
  8
0
100
AcDbBlockBegin
  2
BOHRKREIS
 70
     0
 10
0.0
 20
0.0
 30
0.0
  3
BOHRKREIS
  1

  0
LWPOLYLINE
  5
14A
100
AcDbEntity
  8
0
  6
CONTINUOUS
 62
     7
100
AcDbPolyline
 90
        2
 70
     1
 10
0.0
 20
2.25
 42
-1.0
 10
4.5
 20
2.25
 42
-1.0
  0
LWPOLYLINE
  5
14B
100
AcDbEntity
  8
0
  6
CONTINUOUS
 62
     7
100
AcDbPolyline
 90
        2
 70
     1
 10
1.75
 20
2.25
 42
-1.0
 10
2.75
 20
2.25
 42
-1.0
  0
ENDBLK
  5
14C
100
AcDbEntity
  8
0
100
AcDbBlockEnd
  0
BLOCK
  5
14E
100
AcDbEntity
  8
0
100
AcDbBlockBegin
  2
MATRIX
 70
     0
 10
0.0
 20
0.0
 30
0.0
  3
MATRIX
  1

  0
LWPOLYLINE
  5
14F
100
AcDbEntity
  8
0
  6
CONTINUOUS
 62
     6
100
AcDbPolyline
 90
        4
 70
     1
 10
5.0
 20
5.0
 10
292.0
 20
5.0
 10
292.0
 20
215.396463
 10
5.0
 20
215.396463
  0
LINE
  5
150
100
AcDbEntity
  8
0
  6
CONTINUOUS
 62
     7
100
AcDbLine
 10
44.625
 20
210.396463
 30
0.0
 11
44.625
 21
215.396463
 31
0.0
  0
LINE
  5
151
100
AcDbEntity
  8
0
  6
CONTINUOUS
 62
     7
100
AcDbLine
 10
79.25
 20
210.396463
 30
0.0
 11
79.25
 21
215.396463
 31
0.0
  0
LINE
  5
152
100
AcDbEntity
  8
0
  6
CONTINUOUS
 62
     7
100
AcDbLine
 10
113.875
 20
210.396463
 30
0.0
 11
113.875
 21
215.396463
 31
0.0
  0
LINE
  5
153
100
AcDbEntity
  8
0
  6
CONTINUOUS
 62
     7
100
AcDbLine
 10
148.5
 20
210.396463
 30
0.0
 11
148.5
 21
215.396463
 31
0.0
  0
LINE
  5
154
100
AcDbEntity
  8
0
  6
CONTINUOUS
 62
     7
100
AcDbLine
 10
183.125
 20
210.396463
 30
0.0
 11
183.125
 21
215.396463
 31
0.0
  0
LINE
  5
155
100
AcDbEntity
  8
0
  6
CONTINUOUS
 62
     7
100
AcDbLine
 10
217.75
 20
210.396463
 30
0.0
 11
217.75
 21
215.396463
 31
0.0
  0
LINE
  5
156
100
AcDbEntity
  8
0
  6
CONTINUOUS
 62
     7
100
AcDbLine
 10
252.375
 20
210.396463
 30
0.0
 11
252.375
 21
215.396463
 31
0.0
  0
LINE
  5
157
100
AcDbEntity
  8
0
  6
CONTINUOUS
 62
     7
100
AcDbLine
 10
44.625
 20
10.0
 30
0.0
 11
44.625
 21
5.0
 31
0.0
  0
LINE
  5
158
100
AcDbEntity
  8
0
  6
CONTINUOUS
 62
     7
100
AcDbLine
 10
79.25
 20
10.0
 30
0.0
 11
79.25
 21
5.0
 31
0.0
  0
LINE
  5
159
100
AcDbEntity
  8
0
  6
CONTINUOUS
 62
     7
100
AcDbLine
 10
113.875
 20
10.0
 30
0.0
 11
113.875
 21
5.0
 31
0.0
  0
LINE
  5
15A
100
AcDbEntity
  8
0
  6
CONTINUOUS
 62
     7
100
AcDbLine
 10
148.5
 20
10.0
 30
0.0
 11
148.5
 21
5.0
 31
0.0
  0
LINE
  5
15B
100
AcDbEntity
  8
0
  6
CONTINUOUS
 62
     7
100
AcDbLine
 10
183.125
 20
10.0
 30
0.0
 11
183.125
 21
5.0
 31
0.0
  0
LINE
  5
15C
100
AcDbEntity
  8
0
  6
CONTINUOUS
 62
     7
100
AcDbLine
 10
217.75
 20
10.0
 30
0.0
 11
217.75
 21
5.0
 31
0.0
  0
LINE
  5
15D
100
AcDbEntity
  8
0
  6
CONTINUOUS
 62
     7
100
AcDbLine
 10
252.375
 20
10.0
 30
0.0
 11
252.375
 21
5.0
 31
0.0
  0
LINE
  5
15E
100
AcDbEntity
  8
0
  6
CONTINUOUS
 62
     7
100
AcDbLine
 10
10.0
 20
185.346905
 30
0.0
 11
5.0
 21
185.346905
 31
0.0
  0
LINE
  5
15F
100
AcDbEntity
  8
0
  6
CONTINUOUS
 62
     7
100
AcDbLine
 10
10.0
 20
160.297347
 30
0.0
 11
5.0
 21
160.297347
 31
0.0
  0
LINE
  5
160
100
AcDbEntity
  8
0
  6
CONTINUOUS
 62
     7
100
AcDbLine
 10
10.0
 20
135.247789
 30
0.0
 11
5.0
 21
135.247789
 31
0.0
  0
LINE
  5
161
100
AcDbEntity
  8
0
  6
CONTINUOUS
 62
     7
100
AcDbLine
 10
10.0
 20
110.198231
 30
0.0
 11
5.0
 21
110.198231
 31
0.0
  0
LINE
  5
162
100
AcDbEntity
  8
0
  6
CONTINUOUS
 62
     7
100
AcDbLine
 10
10.0
 20
85.148674
 30
0.0
 11
5.0
 21
85.148674
 31
0.0
  0
LINE
  5
163
100
AcDbEntity
  8
0
  6
CONTINUOUS
 62
     7
100
AcDbLine
 10
10.0
 20
60.099116
 30
0.0
 11
5.0
 21
60.099116
 31
0.0
  0
LINE
  5
164
100
AcDbEntity
  8
0
  6
CONTINUOUS
 62
     7
100
AcDbLine
 10
10.0
 20
35.049558
 30
0.0
 11
5.0
 21
35.049558
 31
0.0
  0
LINE
  5
165
100
AcDbEntity
  8
0
  6
CONTINUOUS
 62
     7
100
AcDbLine
 10
287.0
 20
185.346905
 30
0.0
 11
292.0
 21
185.346905
 31
0.0
  0
LINE
  5
166
100
AcDbEntity
  8
0
  6
CONTINUOUS
 62
     7
100
AcDbLine
 10
287.0
 20
160.297347
 30
0.0
 11
292.0
 21
160.297347
 31
0.0
  0
LINE
  5
167
100
AcDbEntity
  8
0
  6
CONTINUOUS
 62
     7
100
AcDbLine
 10
287.0
 20
135.247789
 30
0.0
 11
292.0
 21
135.247789
 31
0.0
  0
LINE
  5
168
100
AcDbEntity
  8
0
  6
CONTINUOUS
 62
     7
100
AcDbLine
 10
287.0
 20
110.198231
 30
0.0
 11
292.0
 21
110.198231
 31
0.0
  0
LINE
  5
169
100
AcDbEntity
  8
0
  6
CONTINUOUS
 62
     7
100
AcDbLine
 10
287.0
 20
85.148674
 30
0.0
 11
292.0
 21
85.148674
 31
0.0
  0
LINE
  5
16A
100
AcDbEntity
  8
0
  6
CONTINUOUS
 62
     7
100
AcDbLine
 10
287.0
 20
60.099116
 30
0.0
 11
292.0
 21
60.099116
 31
0.0
  0
LINE
  5
16B
100
AcDbEntity
  8
0
  6
CONTINUOUS
 62
     7
100
AcDbLine
 10
287.0
 20
35.049558
 30
0.0
 11
292.0
 21
35.049558
 31
0.0
  0
LWPOLYLINE
  5
16C
100
AcDbEntity
  8
0
  6
CONTINUOUS
 62
     7
100
AcDbPolyline
 90
        4
 70
     1
 10
10.0
 20
210.396463
 10
10.0
 20
10.0
 10
287.0
 20
10.0
 10
287.0
 20
210.396463
  0
MTEXT
  5
16D
100
AcDbEntity
  8
0
100
AcDbMText
 10
289.5
 20
213.966627
 30
0.0
 40
6.164012
 41
5.0
 71
     2
 72
     5
  1
\C7;\fArial|b0|i0|;\H6.1640118710697;H\PG\PF\PE\PD\PC\PB\PA\P
  0
MTEXT
  5
16E
100
AcDbEntity
  8
0
100
AcDbMText
 10
5.0
 20
7.5
 30
0.0
 40
6.164012
 41
287.0
 71
     4
 72
     5
  1
\C7;\fArial|b0|i0|;\H6.1640118710697;87654\P321
  0
MTEXT
  5
16F
100
AcDbEntity
  8
0
100
AcDbMText
 10
7.5
 20
213.966627
 30
0.0
 40
6.164012
 41
5.0
 71
     2
 72
     5
  1
\C7;\fArial|b0|i0|;\H6.1640118710697;H\PG\PF\PE\PD\PC\PB\PA\P
  0
MTEXT
  5
170
100
AcDbEntity
  8
0
100
AcDbMText
 10
5.0
 20
212.896463
 30
0.0
 40
6.164012
 41
287.0
 71
     4
 72
     5
  1
\C7;\fArial|b0|i0|;\H6.1640118710697;87654\P321
  0
ENDBLK
  5
171
100
AcDbEntity
  8
0
100
AcDbBlockEnd
  0
BLOCK
  5
173
100
AcDbEntity
  8
0
100
AcDbBlockBegin
  2
BOHRUNG2
 70
     0
 10
0.0
 20
0.0
 30
0.0
  3
BOHRUNG2
  1

  0
LWPOLYLINE
  5
174
100
AcDbEntity
  8
0
  6
CONTINUOUS
 62
     7
100
AcDbPolyline
 90
        2
 70
     1
 10
8.0
 20
-3.160887
 10
8.0
 20
10.583333
  0
LWPOLYLINE
  5
175
100
AcDbEntity
  8
0
  6
CONTINUOUS
 62
     7
100
AcDbPolyline
 90
        2
 70
     1
 10
0.0
 20
-3.160887
 10
0.0
 20
10.583333
  0
LINE
  5
176
100
AcDbEntity
  8
0
  6
CONTINUOUS
 62
     7
100
AcDbLine
 10
16.46328
 20
1.072446
 30
0.0
 11
8.0
 21
1.072446
 31
0.0
  0
LINE
  5
177
100
AcDbEntity
  8
0
  6
CONTINUOUS
 62
     7
100
AcDbLine
 10
-8.46328
 20
1.072446
 30
0.0
 11
0.0
 21
1.072446
 31
0.0
  0
MTEXT
  5
178
100
AcDbEntity
  8
0
100
AcDbMText
 10
4.509091
 20
6.172011
 30
0.0
 40
3.081935
 41
21.468284
 71
     5
 72
     5
  1
\C7;\fArial|b0|i0|;\H3.0819353945553;\U+00D8 8,00mm
  0
ENDBLK
  5
179
100
AcDbEntity
  8
0
100
AcDbBlockEnd
  0
BLOCK
  5
17B
100
AcDbEntity
  8
0
100
AcDbBlockBegin
  2
TRENNER
 70
     2
 10
0.0
 20
0.0
 30
0.0
  3
TRENNER
  1

  0
LWPOLYLINE
  5
17C
100
AcDbEntity
  8
0
  6
CONTINUOUS
 62
     7
100
AcDbPolyline
 90
        6
 70
     0
 10
10.0
 20
82.0
 10
2.184652
 20
58.553956
 42
0.267288
 10
4.570797
 20
46.819763
 10
9.978723
 20
40.69078
 42
-0.289686
 10
12.01041
 20
28.024289
 10
0.0
 20
0.0
  0
ENDBLK
  5
17D
100
AcDbEntity
  8
0
100
AcDbBlockEnd
  0
BLOCK
  5
17F
100
AcDbEntity
  8
0
100
AcDbBlockBegin
  2
KREIS_27
 70
     0
 10
0.0
 20
0.0
 30
0.0
  3
KREIS_27
  1

  0
LWPOLYLINE
  5
180
100
AcDbEntity
  8
0
  6
CONTINUOUS
 62
     7
100
AcDbPolyline
 90
        2
 70
     1
 10
-1.0
 20
0.0
 10
1.0
 20
0.0
  0
LWPOLYLINE
  5
181
100
AcDbEntity
  8
0
  6
CONTINUOUS
 62
     7
100
AcDbPolyline
 90
        2
 70
     1
 10
0.0
 20
-1.0
 10
0.0
 20
1.0
  0
LWPOLYLINE
  5
182
100
AcDbEntity
  8
0
  6
CONTINUOUS
 62
     7
100
AcDbPolyline
 90
        3
 70
     0
 10
25.0
 20
20.0
 10
20.0
 20
20.0
 10
3.535534
 20
3.535534
  0
MTEXT
  5
183
100
AcDbEntity
  8
0
100
AcDbMText
 10
32.504634
 20
20.0
 30
0.0
 40
4.109294
 41
15.009269
 71
     5
 72
     5
  1
\C7;\fArial|b0|i0|;\H4.1092942200601;\U+00D810,\P00m\Pm
  0
ENDBLK
  5
184
100
AcDbEntity
  8
0
100
AcDbBlockEnd
  0
BLOCK
  5
186
100
AcDbEntity
  8
0
100
AcDbBlockBegin
  2
BOHRUNG
 70
     2
 10
0.0
 20
0.0
 30
0.0
  3
BOHRUNG
  1

  0
LWPOLYLINE
  5
187
100
AcDbEntity
  8
0
  6
CONTINUOUS
 62
     7
100
AcDbPolyline
 90
        3
 70
     0
 10
33.0
 20
0.0
 10
17.595238
 20
0.0
 10
0.0
 20
33.0
  0
MTEXT
  5
188
100
AcDbEntity
  8
0
100
AcDbMText
 10
-19.192734
 20
0.0
 30
0.0
 40
3.081935
 41
38.385469
 71
     5
 72
     5
  1
\C7;\fArial|b0|i0|;\H3.0819353945553;\U+00D8 6 (Bohrungen \Pf\U+00FCr \PGeh\U+00E4useflansch)
  0
ENDBLK
  5
189
100
AcDbEntity
  8
0
100
AcDbBlockEnd
  0
BLOCK
  5
18B
100
AcDbEntity
  8
0
100
AcDbBlockBegin
  2
TEXT
 70
     0
 10
0.0
 20
0.0
 30
0.0
  3
TEXT
  1

  0
LWPOLYLINE
  5
18C
100
AcDbEntity
  8
0
  6
CONTINUOUS
 62
     7
100
AcDbPolyline
 90
        4
 70
     1
 10
0.0
 20
0.0
 10
43.5
 20
0.0
 10
43.5
 20
25.0
 10
0.0
 20
25.0
  0
LINE
  5
18D
100
AcDbEntity
  8
0
  6
CONTINUOUS
 62
     7
100
AcDbLine
 10
0.0
 20
20.0
 30
0.0
 11
43.5
 21
20.0
 31
0.0
  0
LINE
  5
18E
100
AcDbEntity
  8
0
  6
CONTINUOUS
 62
     7
100
AcDbLine
 10
0.0
 20
15.0
 30
0.0
 11
43.5
 21
15.0
 31
0.0
  0
LINE
  5
18F
100
AcDbEntity
  8
0
  6
CONTINUOUS
 62
     7
100
AcDbLine
 10
0.0
 20
10.0
 30
0.0
 11
43.5
 21
10.0
 31
0.0
  0
LINE
  5
190
100
AcDbEntity
  8
0
  6
CONTINUOUS
 62
     7
100
AcDbLine
 10
0.0
 20
5.0
 30
0.0
 11
43.5
 21
5.0
 31
0.0
  0
MTEXT
  5
191
100
AcDbEntity
  8
0
100
AcDbMText
 10
1.411111
 20
24.294444
 30
0.0
 40
4.109294
 41
43.5
 71
     1
 72
     5
  1
\C7;\fArial|b0|i0|;\H4.1092942200601;W\U+00E4hlen und \PText eingeben. \PZeilenabstand \Pmit \PKontrollpunkt \Panpassen.
  0
ENDBLK
  5
192
100
AcDbEntity
  8
0
100
AcDbBlockEnd
  0
BLOCK
  5
194
100
AcDbEntity
  8
0
100
AcDbBlockBegin
  2
MASTER_30
 70
     0
 10
0.0
 20
0.0
 30
0.0
  3
MASTER_30
  1

  0
LWPOLYLINE
  5
195
100
AcDbEntity
  8
0
  6
CONTINUOUS
 62
     7
100
AcDbPolyline
 90
        4
 70
     1
 10
0.0
 20
0.0
 10
40.0
 20
0.0
 10
40.0
 20
30.0
 10
0.0
 20
30.0
  0
ENDBLK
  5
196
100
AcDbEntity
  8
0
100
AcDbBlockEnd
  0
BLOCK
  5
198
100
AcDbEntity
  8
0
100
AcDbBlockBegin
  2
MASTER_31
 70
     0
 10
0.0
 20
0.0
 30
0.0
  3
MASTER_31
  1

  0
LWPOLYLINE
  5
199
100
AcDbEntity
  8
0
  6
CONTINUOUS
 62
     7
100
AcDbPolyline
 90
        2
 70
     1
 10
0.0
 20
20.0
 42
-1.0
 10
40.0
 20
20.0
 42
-1.0
  0
ENDBLK
  5
19A
100
AcDbEntity
  8
0
100
AcDbBlockEnd
  0
BLOCK
  5
19C
100
AcDbEntity
  8
0
100
AcDbBlockBegin
  2
MASTER_32
 70
     0
 10
0.0
 20
0.0
 30
0.0
  3
MASTER_32
  1

  0
LWPOLYLINE
  5
19D
100
AcDbEntity
  8
0
  6
CONTINUOUS
 62
     7
100
AcDbPolyline
 90
        4
 70
     1
 10
0.0
 20
0.0
 10
40.0
 20
0.0
 10
40.0
 20
30.0
 10
0.0
 20
30.0
  0
ENDBLK
  5
19E
100
AcDbEntity
  8
0
100
AcDbBlockEnd
  0
BLOCK
  5
1A0
100
AcDbEntity
  8
0
100
AcDbBlockBegin
  2
P-LINIE
 70
     0
 10
0.0
 20
0.0
 30
0.0
  3
P-LINIE
  1

  0
LINE
  5
1A2
100
AcDbEntity
  8
0
  6
DASHEDX2
 62
     7
100
AcDbLine
 10
0.0
 20
12.7
 30
0.0
 11
86.0
 21
12.7
 31
0.0
  0
ENDBLK
  5
1A3
100
AcDbEntity
  8
0
100
AcDbBlockEnd
  0
BLOCK
  5
1A5
100
AcDbEntity
  8
0
100
AcDbBlockBegin
  2
MASTER_34
 70
     0
 10
0.0
 20
0.0
 30
0.0
  3
MASTER_34
  1

  0
LWPOLYLINE
  5
1A6
100
AcDbEntity
  8
0
  6
CONTINUOUS
 62
     7
100
AcDbPolyline
 90
        2
 70
     1
 10
0.0
 20
20.0
 42
-1.0
 10
40.0
 20
20.0
 42
-1.0
  0
ENDBLK
  5
1A7
100
AcDbEntity
  8
0
100
AcDbBlockEnd
  0
BLOCK
  5
1A9
100
AcDbEntity
  8
0
100
AcDbBlockBegin
  2
RECTANGLE_153
 70
     0
 10
0.0
 20
0.0
 30
0.0
  3
RECTANGLE_153
  1

  0
LWPOLYLINE
  5
1AA
100
AcDbEntity
  8
0
  6
CONTINUOUS
 62
     7
100
AcDbPolyline
 90
        4
 70
     1
 10
30.0
 20
35.0
 10
70.0
 20
35.0
 10
70.0
 20
65.0
 10
30.0
 20
65.0
  0
ENDBLK
  5
1AB
100
AcDbEntity
  8
0
100
AcDbBlockEnd
  0
BLOCK
  5
1AD
100
AcDbEntity
  8
0
100
AcDbBlockBegin
  2
CIRCLE_168
 70
     0
 10
0.0
 20
0.0
 30
0.0
  3
CIRCLE_168
  1

  0
LWPOLYLINE
  5
1AE
100
AcDbEntity
  8
0
  6
CONTINUOUS
 62
     7
100
AcDbPolyline
 90
        2
 70
     1
 10
30.0
 20
50.0
 42
-1.0
 10
70.0
 20
50.0
 42
-1.0
  0
ENDBLK
  5
1AF
100
AcDbEntity
  8
0
100
AcDbBlockEnd
  0
BLOCK
  5
1B1
100
AcDbEntity
  8
0
100
AcDbBlockBegin
  2
MASTER_37
 70
     0
 10
0.0
 20
0.0
 30
0.0
  3
MASTER_37
  1

  0
LWPOLYLINE
  5
1B2
100
AcDbEntity
  8
0
  6
CONTINUOUS
 62
     7
100
AcDbPolyline
 90
        3
 70
     1
 10
43.094011
 20
0.0
 10
20.0
 20
40.0
 10
-3.094011
 20
0.0
  0
ENDBLK
  5
1B3
100
AcDbEntity
  8
0
100
AcDbBlockEnd
  0
BLOCK
  5
1B5
100
AcDbEntity
  8
0
100
AcDbBlockBegin
  2
M-LINIE_193
 70
     0
 10
0.0
 20
0.0
 30
0.0
  3
M-LINIE_193
  1

  0
LINE
  5
1B6
100
AcDbEntity
  8
0
  6
DASHDOT
 62
     7
100
AcDbLine
 10
0.0
 20
12.7
 30
0.0
 11
86.0
 21
12.7
 31
0.0
  0
ENDBLK
  5
1B7
100
AcDbEntity
  8
0
100
AcDbBlockEnd
  0
BLOCK
  5
1B9
100
AcDbEntity
  8
0
100
AcDbBlockBegin
  2
FLEX
 70
     0
 10
0.0
 20
0.0
 30
0.0
  3
FLEX
  1

  0
LWPOLYLINE
  5
1BA
100
AcDbEntity
  8
0
  6
CONTINUOUS
 62
     7
100
AcDbPolyline
 90
        2
 70
     1
 10
29.5
 20
-7.416667
 10
29.5
 20
11.641667
  0
LWPOLYLINE
  5
1BB
100
AcDbEntity
  8
0
  6
CONTINUOUS
 62
     7
100
AcDbPolyline
 90
        2
 70
     1
 10
0.0
 20
-7.416667
 10
0.0
 20
11.641667
  0
LINE
  5
1BC
100
AcDbEntity
  8
0
  6
CONTINUOUS
 62
     7
100
AcDbLine
 10
14.75
 20
-5.3
 30
0.0
 11
29.5
 21
-5.3
 31
0.0
  0
LINE
  5
1BD
100
AcDbEntity
  8
0
  6
CONTINUOUS
 62
     7
100
AcDbLine
 10
14.75
 20
-5.3
 30
0.0
 11
0.0
 21
-5.3
 31
0.0
  0
MTEXT
  5
1BE
100
AcDbEntity
  8
0
100
AcDbMText
 10
7.5
 20
-3.500218
 30
0.0
 40
3.081935
 41
9.676842
 71
     5
 72
     5
  1
\C7;\fArial|b0|i0|;\H3.0819353945553;29,5\P0mm
  0
ENDBLK
  5
1BF
100
AcDbEntity
  8
0
100
AcDbBlockEnd
  0
BLOCK
  5
1C1
100
AcDbEntity
  8
0
100
AcDbBlockBegin
  2
MASTER_40
 70
     2
 10
0.0
 20
0.0
 30
0.0
  3
MASTER_40
  1

  0
LWPOLYLINE
  5
1C2
100
AcDbEntity
  8
0
  6
CONTINUOUS
 62
     6
100
AcDbPolyline
 90
        4
 70
     1
 10
5.0
 20
5.0
 10
292.0
 20
5.0
 10
292.0
 20
215.396463
 10
5.0
 20
215.396463
  0
LINE
  5
1C3
100
AcDbEntity
  8
0
  6
CONTINUOUS
 62
     7
100
AcDbLine
 10
44.625
 20
210.396463
 30
0.0
 11
44.625
 21
215.396463
 31
0.0
  0
LINE
  5
1C4
100
AcDbEntity
  8
0
  6
CONTINUOUS
 62
     7
100
AcDbLine
 10
79.25
 20
210.396463
 30
0.0
 11
79.25
 21
215.396463
 31
0.0
  0
LINE
  5
1C5
100
AcDbEntity
  8
0
  6
CONTINUOUS
 62
     7
100
AcDbLine
 10
113.875
 20
210.396463
 30
0.0
 11
113.875
 21
215.396463
 31
0.0
  0
LINE
  5
1C6
100
AcDbEntity
  8
0
  6
CONTINUOUS
 62
     7
100
AcDbLine
 10
148.5
 20
210.396463
 30
0.0
 11
148.5
 21
215.396463
 31
0.0
  0
LINE
  5
1C7
100
AcDbEntity
  8
0
  6
CONTINUOUS
 62
     7
100
AcDbLine
 10
183.125
 20
210.396463
 30
0.0
 11
183.125
 21
215.396463
 31
0.0
  0
LINE
  5
1C8
100
AcDbEntity
  8
0
  6
CONTINUOUS
 62
     7
100
AcDbLine
 10
217.75
 20
210.396463
 30
0.0
 11
217.75
 21
215.396463
 31
0.0
  0
LINE
  5
1C9
100
AcDbEntity
  8
0
  6
CONTINUOUS
 62
     7
100
AcDbLine
 10
252.375
 20
210.396463
 30
0.0
 11
252.375
 21
215.396463
 31
0.0
  0
LINE
  5
1CA
100
AcDbEntity
  8
0
  6
CONTINUOUS
 62
     7
100
AcDbLine
 10
44.625
 20
10.0
 30
0.0
 11
44.625
 21
5.0
 31
0.0
  0
LINE
  5
1CB
100
AcDbEntity
  8
0
  6
CONTINUOUS
 62
     7
100
AcDbLine
 10
79.25
 20
10.0
 30
0.0
 11
79.25
 21
5.0
 31
0.0
  0
LINE
  5
1CC
100
AcDbEntity
  8
0
  6
CONTINUOUS
 62
     7
100
AcDbLine
 10
113.875
 20
10.0
 30
0.0
 11
113.875
 21
5.0
 31
0.0
  0
LINE
  5
1CD
100
AcDbEntity
  8
0
  6
CONTINUOUS
 62
     7
100
AcDbLine
 10
148.5
 20
10.0
 30
0.0
 11
148.5
 21
5.0
 31
0.0
  0
LINE
  5
1CE
100
AcDbEntity
  8
0
  6
CONTINUOUS
 62
     7
100
AcDbLine
 10
183.125
 20
10.0
 30
0.0
 11
183.125
 21
5.0
 31
0.0
  0
LINE
  5
1CF
100
AcDbEntity
  8
0
  6
CONTINUOUS
 62
     7
100
AcDbLine
 10
217.75
 20
10.0
 30
0.0
 11
217.75
 21
5.0
 31
0.0
  0
LINE
  5
1D0
100
AcDbEntity
  8
0
  6
CONTINUOUS
 62
     7
100
AcDbLine
 10
252.375
 20
10.0
 30
0.0
 11
252.375
 21
5.0
 31
0.0
  0
LINE
  5
1D1
100
AcDbEntity
  8
0
  6
CONTINUOUS
 62
     7
100
AcDbLine
 10
10.0
 20
185.346905
 30
0.0
 11
5.0
 21
185.346905
 31
0.0
  0
LINE
  5
1D2
100
AcDbEntity
  8
0
  6
CONTINUOUS
 62
     7
100
AcDbLine
 10
10.0
 20
160.297347
 30
0.0
 11
5.0
 21
160.297347
 31
0.0
  0
LINE
  5
1D3
100
AcDbEntity
  8
0
  6
CONTINUOUS
 62
     7
100
AcDbLine
 10
10.0
 20
135.247789
 30
0.0
 11
5.0
 21
135.247789
 31
0.0
  0
LINE
  5
1D4
100
AcDbEntity
  8
0
  6
CONTINUOUS
 62
     7
100
AcDbLine
 10
10.0
 20
110.198231
 30
0.0
 11
5.0
 21
110.198231
 31
0.0
  0
LINE
  5
1D5
100
AcDbEntity
  8
0
  6
CONTINUOUS
 62
     7
100
AcDbLine
 10
10.0
 20
85.148674
 30
0.0
 11
5.0
 21
85.148674
 31
0.0
  0
LINE
  5
1D6
100
AcDbEntity
  8
0
  6
CONTINUOUS
 62
     7
100
AcDbLine
 10
10.0
 20
60.099116
 30
0.0
 11
5.0
 21
60.099116
 31
0.0
  0
LINE
  5
1D7
100
AcDbEntity
  8
0
  6
CONTINUOUS
 62
     7
100
AcDbLine
 10
10.0
 20
35.049558
 30
0.0
 11
5.0
 21
35.049558
 31
0.0
  0
LINE
  5
1D8
100
AcDbEntity
  8
0
  6
CONTINUOUS
 62
     7
100
AcDbLine
 10
287.0
 20
185.346905
 30
0.0
 11
292.0
 21
185.346905
 31
0.0
  0
LINE
  5
1D9
100
AcDbEntity
  8
0
  6
CONTINUOUS
 62
     7
100
AcDbLine
 10
287.0
 20
160.297347
 30
0.0
 11
292.0
 21
160.297347
 31
0.0
  0
LINE
  5
1DA
100
AcDbEntity
  8
0
  6
CONTINUOUS
 62
     7
100
AcDbLine
 10
287.0
 20
135.247789
 30
0.0
 11
292.0
 21
135.247789
 31
0.0
  0
LINE
  5
1DB
100
AcDbEntity
  8
0
  6
CONTINUOUS
 62
     7
100
AcDbLine
 10
287.0
 20
110.198231
 30
0.0
 11
292.0
 21
110.198231
 31
0.0
  0
LINE
  5
1DC
100
AcDbEntity
  8
0
  6
CONTINUOUS
 62
     7
100
AcDbLine
 10
287.0
 20
85.148674
 30
0.0
 11
292.0
 21
85.148674
 31
0.0
  0
LINE
  5
1DD
100
AcDbEntity
  8
0
  6
CONTINUOUS
 62
     7
100
AcDbLine
 10
287.0
 20
60.099116
 30
0.0
 11
292.0
 21
60.099116
 31
0.0
  0
LINE
  5
1DE
100
AcDbEntity
  8
0
  6
CONTINUOUS
 62
     7
100
AcDbLine
 10
287.0
 20
35.049558
 30
0.0
 11
292.0
 21
35.049558
 31
0.0
  0
LWPOLYLINE
  5
1DF
100
AcDbEntity
  8
0
  6
CONTINUOUS
 62
     7
100
AcDbPolyline
 90
        4
 70
     1
 10
10.0
 20
210.396463
 10
10.0
 20
10.0
 10
287.0
 20
10.0
 10
287.0
 20
210.396463
  0
MTEXT
  5
1E0
100
AcDbEntity
  8
0
100
AcDbMText
 10
289.5
 20
213.966627
 30
0.0
 40
6.164012
 41
5.0
 71
     2
 72
     5
  1
\C7;\fArial|b0|i0|;\H6.1640118710697;H\PG\PF\PE\PD\PC\PB\PA\P
  0
MTEXT
  5
1E1
100
AcDbEntity
  8
0
100
AcDbMText
 10
5.0
 20
7.5
 30
0.0
 40
6.164012
 41
287.0
 71
     4
 72
     5
  1
\C7;\fArial|b0|i0|;\H6.1640118710697;87654\P321
  0
MTEXT
  5
1E2
100
AcDbEntity
  8
0
100
AcDbMText
 10
7.5
 20
213.966627
 30
0.0
 40
6.164012
 41
5.0
 71
     2
 72
     5
  1
\C7;\fArial|b0|i0|;\H6.1640118710697;H\PG\PF\PE\PD\PC\PB\PA\P
  0
MTEXT
  5
1E3
100
AcDbEntity
  8
0
100
AcDbMText
 10
5.0
 20
212.896463
 30
0.0
 40
6.164012
 41
287.0
 71
     4
 72
     5
  1
\C7;\fArial|b0|i0|;\H6.1640118710697;87654\P321
  0
ENDBLK
  5
1E4
100
AcDbEntity
  8
0
100
AcDbBlockEnd
  0
BLOCK
  5
1E6
100
AcDbEntity
  8
0
100
AcDbBlockBegin
  2
MASTER_41
 70
     0
 10
0.0
 20
0.0
 30
0.0
  3
MASTER_41
  1

  0
LWPOLYLINE
  5
1E7
100
AcDbEntity
  8
0
  6
CONTINUOUS
 62
     7
100
AcDbPolyline
 90
        3
 70
     0
 10
33.0
 20
0.0
 10
18.0
 20
0.0
 10
0.0
 20
33.0
  0
MTEXT
  5
1E8
100
AcDbEntity
  8
0
100
AcDbMText
 10
-3.425577
 20
0.0
 30
0.0
 40
3.081935
 41
6.851153
 71
     5
 72
     5
  1
\C7;\fArial|b0|i0|;\H3.0819353945553;x\Px\Px
  0
ENDBLK
  5
1E9
100
AcDbEntity
  8
0
100
AcDbBlockEnd
  0
BLOCK
  5
1EB
100
AcDbEntity
  8
0
100
AcDbBlockBegin
  2
MASTER_42
 70
     0
 10
0.0
 20
0.0
 30
0.0
  3
MASTER_42
  1

  0
LWPOLYLINE
  5
1EC
100
AcDbEntity
  8
0
  6
CONTINUOUS
 62
     7
100
AcDbPolyline
 90
        2
 70
     1
 10
2.877778
 20
0.0
 10
11.288889
 20
0.0
  0
LWPOLYLINE
  5
1ED
100
AcDbEntity
  8
0
  6
CONTINUOUS
 62
     7
100
AcDbPolyline
 90
        2
 70
     1
 10
2.877778
 20
25.0
 10
11.288889
 20
25.0
  0
LINE
  5
1EE
100
AcDbEntity
  8
0
  6
CONTINUOUS
 62
     7
100
AcDbLine
 10
5.7
 20
12.5
 30
0.0
 11
5.7
 21
0.0
 31
0.0
  0
LINE
  5
1EF
100
AcDbEntity
  8
0
  6
CONTINUOUS
 62
     7
100
AcDbLine
 10
5.7
 20
12.5
 30
0.0
 11
5.7
 21
25.0
 31
0.0
  0
MTEXT
  5
1F0
100
AcDbEntity
  8
0
100
AcDbMText
 10
3.300483
 20
12.5
 30
0.0
 40
4.109294
 41
12.814054
 71
     5
 72
     5
  1
\C7;\fArial|b0|i0|;\H4.1092942200601;25,0\P0mm
 11
0.0
 21
1.0
 31
0.0
  0
ENDBLK
  5
1F1
100
AcDbEntity
  8
0
100
AcDbBlockEnd
  0
BLOCK
  5
1F3
100
AcDbEntity
  8
0
100
AcDbBlockBegin
  2
MASTER_43
 70
     2
 10
0.0
 20
0.0
 30
0.0
  3
MASTER_43
  1

  0
ATTDEF
  5
1F4
100
AcDbEntity
  8
0
100
AcDbText
 10
16.5
 20
12.7
 30
0.0
 40
0.2
  1
0.00
100
AcDbAttributeDefinition
  3
Genauigkeit
  2
LPREC
 70
     0
  0
ATTDEF
  5
1F5
100
AcDbEntity
  8
0
100
AcDbText
 10
16.5
 20
12.7
 30
0.0
 40
0.2
  1
 Einheiten des Zeichenblattes verwenden
100
AcDbAttributeDefinition
  3
Ma\U+00DFeinheiten
  2
LUNITS
 70
     0
  0
ATTDEF
  5
1F6
100
AcDbEntity
  8
0
100
AcDbText
 10
16.5
 20
12.7
 30
0.0
 40
0.2
  1
Ma\U+00DFeinheiten anzeigen
100
AcDbAttributeDefinition
  3
Ma\U+00DFeinheiten-Anzeige
  2
SHOWUNITS
 70
     0
  0
ATTDEF
  5
1F7
100
AcDbEntity
  8
0
100
AcDbText
 10
16.5
 20
12.7
 30
0.0
 40
0.2
  1
Beide
100
AcDbAttributeDefinition
  3
Erweiterungslinien
  2
EXTENSIONS
 70
     0
  0
LWPOLYLINE
  5
1F8
100
AcDbEntity
  8
0
  6
CONTINUOUS
 62
     7
100
AcDbPolyline
 90
        2
 70
     1
 10
16.5
 20
-3.416667
 10
16.5
 20
11.641667
  0
LWPOLYLINE
  5
1F9
100
AcDbEntity
  8
0
  6
CONTINUOUS
 62
     7
100
AcDbPolyline
 90
        2
 70
     1
 10
0.0
 20
-3.416667
 10
0.0
 20
11.641667
  0
LINE
  5
1FA
100
AcDbEntity
  8
0
  6
CONTINUOUS
 62
     7
100
AcDbLine
 10
8.25
 20
-1.3
 30
0.0
 11
16.5
 21
-1.3
 31
0.0
  0
LINE
  5
1FB
100
AcDbEntity
  8
0
  6
CONTINUOUS
 62
     7
100
AcDbLine
 10
8.25
 20
-1.3
 30
0.0
 11
0.0
 21
-1.3
 31
0.0
  0
MTEXT
  5
1FC
100
AcDbEntity
  8
0
100
AcDbMText
 10
8.5
 20
0.499782
 30
0.0
 40
3.081935
 41
11.911299
 71
     5
 72
     5
  1
\C7;\fArial|b0|i0|;\H3.0819353945553;\U+00D8 \P16,50\Pmm
  0
ENDBLK
  5
1FD
100
AcDbEntity
  8
0
100
AcDbBlockEnd
  0
BLOCK
  5
1FF
100
AcDbEntity
  8
0
100
AcDbBlockBegin
  2
FLACHKOPF_OBEN
 70
     2
 10
0.0
 20
0.0
 30
0.0
  3
FLACHKOPF_OBEN
  1

  0
ATTDEF
  5
200
100
AcDbEntity
  8
0
100
AcDbText
 10
25.0
 20
25.0
 30
0.0
 40
0.2
  1
M5
100
AcDbAttributeDefinition
  3
Gewindedurchmesser
  2
THREAD
 70
     0
  0
ATTDEF
  5
201
100
AcDbEntity
  8
0
100
AcDbText
 10
25.0
 20
25.0
 30
0.0
 40
0.2
  1
0.19685039370079
100
AcDbAttributeDefinition
  3
Durchmesser
  2
DIAMETER
 70
     0
  0
LWPOLYLINE
  5
202
100
AcDbEntity
  8
0
  6
CONTINUOUS
 62
     7
100
AcDbPolyline
 90
        2
 70
     1
 10
20.0
 20
25.0
 42
-1.0
 10
30.0
 20
25.0
 42
-1.0
  0
LINE
  5
203
100
AcDbEntity
  8
0
  6
CONTINUOUS
 62
     7
100
AcDbLine
 10
21.05
 20
21.94
 30
0.0
 11
28.06
 21
28.95
 31
0.0
  0
LINE
  5
204
100
AcDbEntity
  8
0
  6
CONTINUOUS
 62
     7
100
AcDbLine
 10
28.94
 20
28.06
 30
0.0
 11
21.94
 21
21.06
 31
0.0
  0
LWPOLYLINE
  5
206
100
AcDbEntity
  8
0
  6
DOT
 62
     7
100
AcDbPolyline
 90
        2
 70
     1
 10
22.5
 20
25.0
 42
-1.0
 10
27.5
 20
25.0
 42
-1.0
  0
LWPOLYLINE
  5
207
100
AcDbEntity
  8
0
  6
DOT
 62
     7
100
AcDbPolyline
 90
        2
 70
     1
 10
23.25
 20
25.0
 42
-1.0
 10
26.75
 20
25.0
 42
-1.0
  0
ENDBLK
  5
208
100
AcDbEntity
  8
0
100
AcDbBlockEnd
  0
BLOCK
  5
20A
100
AcDbEntity
  8
0
100
AcDbBlockBegin
  2
MASTER_45
 70
     0
 10
0.0
 20
0.0
 30
0.0
  3
MASTER_45
  1

  0
LINE
  5
20B
100
AcDbEntity
  8
0
  6
DASHEDX2
 62
     7
100
AcDbLine
 10
0.0
 20
12.7
 30
0.0
 11
86.0
 21
12.7
 31
0.0
  0
ENDBLK
  5
20C
100
AcDbEntity
  8
0
100
AcDbBlockEnd
  0
BLOCK
  5
20E
100
AcDbEntity
  8
0
100
AcDbBlockBegin
  2
ACHTECK
 70
     0
 10
0.0
 20
0.0
 30
0.0
  3
ACHTECK
  1

  0
LWPOLYLINE
  5
20F
100
AcDbEntity
  8
0
  6
CONTINUOUS
 62
     7
100
AcDbPolyline
 90
        8
 70
     1
 10
58.284272
 20
70.0
 10
41.715728
 20
70.0
 10
30.0
 20
58.284272
 10
30.0
 20
41.715728
 10
41.715728
 20
30.0
 10
58.284272
 20
30.0
 10
70.0
 20
41.715728
 10
70.0
 20
58.284272
  0
ENDBLK
  5
210
100
AcDbEntity
  8
0
100
AcDbBlockEnd
  0
BLOCK
  5
212
100
AcDbEntity
  8
0
100
AcDbBlockBegin
  2
MASTER_47
 70
     0
 10
0.0
 20
0.0
 30
0.0
  3
MASTER_47
  1

  0
LWPOLYLINE
  5
213
100
AcDbEntity
  8
0
  6
CONTINUOUS
 62
     7
100
AcDbPolyline
 90
        4
 70
     1
 10
62.5
 20
-2.5
 10
63.5
 20
-2.5
 10
63.5
 20
7.5
 10
62.5
 20
7.5
  0
LINE
  5
214
100
AcDbEntity
  8
0
  6
DOT
 62
     7
100
AcDbLine
 10
62.5
 20
-0.125
 30
0.0
 11
63.5
 21
-0.125
 31
0.0
  0
LINE
  5
215
100
AcDbEntity
  8
0
  6
DOT
 62
     7
100
AcDbLine
 10
62.5
 20
5.125
 30
0.0
 11
63.5
 21
5.125
 31
0.0
  0
LWPOLYLINE
  5
216
100
AcDbEntity
  8
0
  6
CONTINUOUS
 62
     7
100
AcDbPolyline
 90
        6
 70
     1
 10
53.0
 20
-2.5
 10
53.5
 20
-2.5
 10
53.5
 20
7.5
 10
53.0
 20
7.5
 10
52.5
 20
6.386956
 10
52.5
 20
-1.386956
  0
LINE
  5
217
100
AcDbEntity
  8
0
  6
CONTINUOUS
 62
     7
100
AcDbLine
 10
53.0
 20
-2.5
 30
0.0
 11
53.0
 21
7.5
 31
0.0
  0
LINE
  5
218
100
AcDbEntity
  8
0
  6
DOT
 62
     7
100
AcDbLine
 10
52.5
 20
-0.125
 30
0.0
 11
53.5
 21
-0.125
 31
0.0
  0
LINE
  5
219
100
AcDbEntity
  8
0
  6
DOT
 62
     7
100
AcDbLine
 10
52.5
 20
5.125
 30
0.0
 11
53.5
 21
5.125
 31
0.0
  0
LWPOLYLINE
  5
21A
100
AcDbEntity
  8
0
  6
CONTINUOUS
 62
     7
100
AcDbPolyline
 90
        2
 70
     1
 10
72.5
 20
2.5
 42
1.0
 10
82.5
 20
2.5
 42
1.0
  0
LWPOLYLINE
  5
21B
100
AcDbEntity
  8
0
  6
CONTINUOUS
 62
     7
100
AcDbPolyline
 90
        2
 70
     1
 10
74.875
 20
2.5
 42
1.0
 10
80.125
 20
2.5
 42
1.0
  0
LWPOLYLINE
  5
21C
100
AcDbEntity
  8
0
  6
CONTINUOUS
 62
     7
100
AcDbPolyline
 90
        2
 70
     1
 10
32.5
 20
2.5
 42
1.0
 10
42.5
 20
2.5
 42
1.0
  0
LWPOLYLINE
  5
21D
100
AcDbEntity
  8
0
  6
CONTINUOUS
 62
     7
100
AcDbPolyline
 90
        2
 70
     1
 10
34.875
 20
2.5
 42
1.0
 10
40.125
 20
2.5
 42
1.0
  0
LWPOLYLINE
  5
21E
100
AcDbEntity
  8
0
  6
CONTINUOUS
 62
     7
100
AcDbPolyline
 90
        2
 70
     1
 10
33.4
 20
2.5
 42
1.0
 10
41.6
 20
2.5
 42
1.0
  0
LINE
  5
21F
100
AcDbEntity
  8
0
  6
CONTINUOUS
 62
     7
100
AcDbLine
 10
65.875
 20
28.125
 30
0.0
 11
69.125
 21
28.125
 31
0.0
  0
LINE
  5
220
100
AcDbEntity
  8
0
  6
CONTINUOUS
 62
     7
100
AcDbLine
 10
65.875
 20
31.875
 30
0.0
 11
69.125
 21
31.875
 31
0.0
  0
LWPOLYLINE
  5
221
100
AcDbEntity
  8
0
  6
CONTINUOUS
 62
     7
100
AcDbPolyline
 90
        8
 70
     0
 10
65.875
 20
25.4
 42
-0.277858
 10
65.875
 20
28.125
 42
-0.2
 10
65.875
 20
31.875
 42
-0.277858
 10
65.875
 20
34.6
 10
69.125
 20
34.6
 42
-0.277858
 10
69.125
 20
31.875
 42
-0.2
 10
69.125
 20
28.125
 42
-0.277858
 10
69.125
 20
25.4
  0
LWPOLYLINE
  5
222
100
AcDbEntity
  8
0
  6
CONTINUOUS
 62
     7
100
AcDbPolyline
 90
        8
 70
     1
 10
65.875
 20
25.4
 10
65.5
 20
25.95
 10
65.5
 20
34.05
 10
65.875
 20
34.6
 10
69.125
 20
34.6
 10
69.5
 20
34.05
 42
-0.925926
 10
69.5
 20
25.95
 10
69.125
 20
25.4
  0
LINE
  5
223
100
AcDbEntity
  8
0
  6
DOT
 62
     7
100
AcDbLine
 10
69.5
 20
32.5
 30
0.0
 11
65.5
 21
32.5
 31
0.0
  0
LINE
  5
224
100
AcDbEntity
  8
0
  6
DOT
 62
     7
100
AcDbLine
 10
69.5
 20
27.5
 30
0.0
 11
65.5
 21
27.5
 31
0.0
  0
ARC
  5
225
100
AcDbEntity
  8
0
  6
DOT
 62
     7
100
AcDbCircle
 10
69.5
 20
30.0
 30
0.0
 40
2.5
100
AcDbArc
 50
270.0
 51
90.0
  0
ARC
  5
226
100
AcDbEntity
  8
0
  6
CONTINUOUS
 62
     7
100
AcDbCircle
 10
35.0
 20
30.0
 30
0.0
 40
4.0
100
AcDbArc
 50
0.0
 51
180.0
  0
ARC
  5
227
100
AcDbEntity
  8
0
  6
CONTINUOUS
 62
     7
100
AcDbCircle
 10
35.0
 20
30.0
 30
0.0
 40
4.0
100
AcDbArc
 50
180.0
 51
0.0
  0
LWPOLYLINE
  5
228
100
AcDbEntity
  8
0
  6
CONTINUOUS
 62
     7
100
AcDbPolyline
 90
        6
 70
     1
 10
31.0
 20
27.690599
 10
31.0
 20
32.309401
 10
35.0
 20
34.618802
 10
39.0
 20
32.309401
 10
39.0
 20
27.690599
 10
35.0
 20
25.381198
  0
LWPOLYLINE
  5
229
100
AcDbEntity
  8
0
  6
DOT
 62
     7
100
AcDbPolyline
 90
        2
 70
     1
 10
32.5
 20
30.0
 42
-1.0
 10
37.5
 20
30.0
 42
-1.0
  0
LWPOLYLINE
  5
22A
100
AcDbEntity
  8
0
  6
DOT
 62
     7
100
AcDbPolyline
 90
        2
 70
     1
 10
33.25
 20
30.0
 42
-1.0
 10
36.75
 20
30.0
 42
-1.0
  0
LINE
  5
22B
100
AcDbEntity
  8
0
  6
CONTINUOUS
 62
     7
100
AcDbLine
 10
-0.458333
 20
32.3
 30
0.0
 11
2.5
 21
32.3
 31
0.0
  0
LINE
  5
22C
100
AcDbEntity
  8
0
  6
CONTINUOUS
 62
     7
100
AcDbLine
 10
-0.458333
 20
27.7
 30
0.0
 11
2.5
 21
27.7
 31
0.0
  0
LWPOLYLINE
  5
22D
100
AcDbEntity
  8
0
  6
CONTINUOUS
 62
     7
100
AcDbPolyline
 90
        4
 70
     0
 10
-0.458333
 20
34.6
 42
0.327345
 10
-0.458333
 20
32.3
 42
0.163043
 10
-0.458333
 20
27.7
 42
0.327345
 10
-0.458333
 20
25.4
  0
LWPOLYLINE
  5
22E
100
AcDbEntity
  8
0
  6
CONTINUOUS
 62
     7
100
AcDbPolyline
 90
        6
 70
     1
 10
-0.458333
 20
34.6
 10
-0.833333
 20
34.05
 10
-0.833333
 20
25.95
 10
-0.458333
 20
25.4
 10
2.5
 20
25.4
 10
2.5
 20
34.6
  0
LINE
  5
22F
100
AcDbEntity
  8
0
  6
CONTINUOUS
 62
     7
100
AcDbLine
 10
16.75
 20
32.5
 30
0.0
 11
16.75
 21
27.5
 31
0.0
  0
LINE
  5
230
100
AcDbEntity
  8
0
  6
CONTINUOUS
 62
     7
100
AcDbLine
 10
5.0
 20
32.5
 30
0.0
 11
5.0
 21
27.5
 31
0.0
  0
LWPOLYLINE
  5
231
100
AcDbEntity
  8
0
  6
CONTINUOUS
 62
     7
100
AcDbPolyline
 90
        6
 70
     1
 10
2.5
 20
32.5
 10
16.75
 20
32.5
 10
17.5
 20
31.75
 10
17.5
 20
28.25
 10
16.75
 20
27.5
 10
2.5
 20
27.5
  0
LWPOLYLINE
  5
232
100
AcDbEntity
  8
0
  6
CONTINUOUS
 62
     7
100
AcDbPolyline
 90
        3
 70
     0
 10
3.700962
 20
27.5
 10
5.0
 20
28.25
 10
17.5
 20
28.25
  0
LWPOLYLINE
  5
233
100
AcDbEntity
  8
0
  6
CONTINUOUS
 62
     7
100
AcDbPolyline
 90
        3
 70
     0
 10
3.700962
 20
32.5
 10
5.0
 20
31.75
 10
17.5
 20
31.75
  0
LINE
  5
234
100
AcDbEntity
  8
0
  6
CONTINUOUS
 62
     7
100
AcDbLine
 10
14.25
 20
20.0
 30
0.0
 11
14.25
 21
15.0
 31
0.0
  0
LINE
  5
235
100
AcDbEntity
  8
0
  6
CONTINUOUS
 62
     7
100
AcDbLine
 10
5.0
 20
20.0
 30
0.0
 11
5.0
 21
15.0
 31
0.0
  0
LWPOLYLINE
  5
236
100
AcDbEntity
  8
0
  6
CONTINUOUS
 62
     7
100
AcDbPolyline
 90
       12
 70
     1
 10
2.5
 20
20.0
 10
14.25
 20
20.0
 10
15.0
 20
19.25
 10
15.0
 20
15.75
 10
14.25
 20
15.0
 10
2.5
 20
15.0
 10
0.0
 20
12.5
 10
0.0
 20
16.875
 10
1.25
 20
16.875
 10
1.25
 20
18.125
 10
0.0
 20
18.125
 10
0.0
 20
22.5
  0
LINE
  5
237
100
AcDbEntity
  8
0
  6
CONTINUOUS
 62
     7
100
AcDbLine
 10
2.5
 20
15.0
 30
0.0
 11
2.5
 21
20.0
 31
0.0
  0
LWPOLYLINE
  5
238
100
AcDbEntity
  8
0
  6
CONTINUOUS
 62
     7
100
AcDbPolyline
 90
        3
 70
     0
 10
3.700962
 20
15.0
 10
5.0
 20
15.75
 10
15.0
 20
15.75
  0
LWPOLYLINE
  5
239
100
AcDbEntity
  8
0
  6
CONTINUOUS
 62
     7
100
AcDbPolyline
 90
        3
 70
     0
 10
3.700962
 20
20.0
 10
5.0
 20
19.25
 10
15.0
 20
19.25
  0
LWPOLYLINE
  5
23A
100
AcDbEntity
  8
0
  6
CONTINUOUS
 62
     7
100
AcDbPolyline
 90
        6
 70
     1
 10
-1.875
 20
6.5
 10
-2.5
 20
5.875
 10
-2.5
 20
-0.875
 10
-1.875
 20
-1.5
 10
2.5
 20
-1.5
 10
2.5
 20
6.5
  0
LINE
  5
23B
100
AcDbEntity
  8
0
  6
CONTINUOUS
 62
     7
100
AcDbLine
 10
-1.875
 20
6.5
 30
0.0
 11
-1.875
 21
-1.5
 31
0.0
  0
LINE
  5
23C
100
AcDbEntity
  8
0
  6
CONTINUOUS
 62
     7
100
AcDbLine
 10
16.75
 20
5.0
 30
0.0
 11
16.75
 21
0.0
 31
0.0
  0
LINE
  5
23D
100
AcDbEntity
  8
0
  6
CONTINUOUS
 62
     7
100
AcDbLine
 10
5.0
 20
5.0
 30
0.0
 11
5.0
 21
0.0
 31
0.0
  0
LWPOLYLINE
  5
23E
100
AcDbEntity
  8
0
  6
CONTINUOUS
 62
     7
100
AcDbPolyline
 90
        6
 70
     1
 10
2.5
 20
5.0
 10
16.75
 20
5.0
 10
17.5
 20
4.25
 10
17.5
 20
0.75
 10
16.75
 20
0.0
 10
2.5
 20
0.0
  0
LWPOLYLINE
  5
23F
100
AcDbEntity
  8
0
  6
CONTINUOUS
 62
     7
100
AcDbPolyline
 90
        3
 70
     0
 10
3.700962
 20
0.0
 10
5.0
 20
0.75
 10
17.5
 20
0.75
  0
LWPOLYLINE
  5
240
100
AcDbEntity
  8
0
  6
CONTINUOUS
 62
     7
100
AcDbPolyline
 90
        3
 70
     0
 10
3.700962
 20
5.0
 10
5.0
 20
4.25
 10
17.5
 20
4.25
  0
LWPOLYLINE
  5
241
100
AcDbEntity
  8
0
  6
DOT
 62
     7
100
AcDbPolyline
 90
        5
 70
     0
 10
-2.5
 20
5.0
 10
0.5
 20
5.0
 10
1.25
 20
2.5
 10
0.5
 20
0.0
 10
-2.5
 20
0.0
  0
LINE
  5
242
100
AcDbEntity
  8
0
  6
DOT
 62
     7
100
AcDbLine
 10
0.5
 20
5.0
 30
0.0
 11
0.5
 21
0.0
 31
0.0
  0
LINE
  5
243
100
AcDbEntity
  8
0
  6
DOT
 62
     7
100
AcDbLine
 10
-2.5
 20
3.6075
 30
0.0
 11
0.5
 21
3.6075
 31
0.0
  0
LINE
  5
244
100
AcDbEntity
  8
0
  6
DOT
 62
     7
100
AcDbLine
 10
-2.5
 20
1.3925
 30
0.0
 11
0.5
 21
1.3925
 31
0.0
  0
LINE
  5
245
100
AcDbEntity
  8
0
  6
CONTINUOUS
 62
     7
100
AcDbLine
 10
54.125
 20
27.7
 30
0.0
 11
50.5
 21
27.7
 31
0.0
  0
LINE
  5
246
100
AcDbEntity
  8
0
  6
CONTINUOUS
 62
     7
100
AcDbLine
 10
54.125
 20
32.3
 30
0.0
 11
50.5
 21
32.3
 31
0.0
  0
LWPOLYLINE
  5
247
100
AcDbEntity
  8
0
  6
CONTINUOUS
 62
     7
100
AcDbPolyline
 90
        4
 70
     0
 10
54.125
 20
25.4
 42
0.327345
 10
54.125
 20
27.7
 42
0.163043
 10
54.125
 20
32.3
 42
0.327345
 10
54.125
 20
34.6
  0
LWPOLYLINE
  5
248
100
AcDbEntity
  8
0
  6
CONTINUOUS
 62
     7
100
AcDbPolyline
 90
        6
 70
     1
 10
54.125
 20
25.4
 10
54.5
 20
25.95
 10
54.5
 20
34.05
 10
54.125
 20
34.6
 10
50.5
 20
34.6
 10
50.5
 20
25.4
  0
LINE
  5
249
100
AcDbEntity
  8
0
  6
DOT
 62
     7
100
AcDbLine
 10
50.5
 20
32.5
 30
0.0
 11
54.5
 21
32.5
 31
0.0
  0
LINE
  5
24A
100
AcDbEntity
  8
0
  6
DOT
 62
     7
100
AcDbLine
 10
50.5
 20
27.5
 30
0.0
 11
54.5
 21
27.5
 31
0.0
  0
LINE
  5
24B
100
AcDbEntity
  8
0
  6
CONTINUOUS
 62
     7
100
AcDbLine
 10
32.0
 20
17.542333
 30
0.0
 11
32.0
 21
20.0
 31
0.0
  0
LINE
  5
24C
100
AcDbEntity
  8
0
  6
CONTINUOUS
 62
     7
100
AcDbLine
 10
32.0
 20
20.0
 30
0.0
 11
33.0
 21
20.0
 31
0.0
  0
LINE
  5
24D
100
AcDbEntity
  8
0
  6
CONTINUOUS
 62
     7
100
AcDbLine
 10
33.0
 20
20.0
 30
0.0
 11
33.0
 21
17.542333
 31
0.0
  0
LINE
  5
24E
100
AcDbEntity
  8
0
  6
CONTINUOUS
 62
     7
100
AcDbLine
 10
32.0
 20
12.457667
 30
0.0
 11
32.0
 21
10.0
 31
0.0
  0
LINE
  5
24F
100
AcDbEntity
  8
0
  6
CONTINUOUS
 62
     7
100
AcDbLine
 10
32.0
 20
10.0
 30
0.0
 11
33.0
 21
10.0
 31
0.0
  0
LINE
  5
250
100
AcDbEntity
  8
0
  6
CONTINUOUS
 62
     7
100
AcDbLine
 10
33.0
 20
10.0
 30
0.0
 11
33.0
 21
12.457667
 31
0.0
  0
LWPOLYLINE
  5
251
100
AcDbEntity
  8
0
  6
CONTINUOUS
 62
     7
100
AcDbPolyline
 90
        4
 70
     1
 10
31.75
 20
14.18
 10
32.78
 20
15.16
 10
33.0
 20
20.0
 10
32.0
 20
20.0
  0
LWPOLYLINE
  5
252
100
AcDbEntity
  8
0
  6
CONTINUOUS
 62
     7
100
AcDbPolyline
 90
        4
 70
     1
 10
33.28
 20
14.85
 10
32.22
 20
13.7
 10
32.0
 20
10.0
 10
33.0
 20
10.0
  0
LINE
  5
253
100
AcDbEntity
  8
0
  6
DOT
 62
     7
100
AcDbLine
 10
32.0
 20
17.457667
 30
0.0
 11
32.0
 21
12.542333
 31
0.0
  0
LINE
  5
254
100
AcDbEntity
  8
0
  6
DOT
 62
     7
100
AcDbLine
 10
33.0
 20
17.457667
 30
0.0
 11
33.0
 21
12.542333
 31
0.0
  0
LINE
  5
255
100
AcDbEntity
  8
0
  6
DOT
 62
     7
100
AcDbLine
 10
32.0
 20
12.375
 30
0.0
 11
33.0
 21
12.375
 31
0.0
  0
LINE
  5
256
100
AcDbEntity
  8
0
  6
DOT
 62
     7
100
AcDbLine
 10
32.0
 20
17.625
 30
0.0
 11
33.0
 21
17.625
 31
0.0
  0
LWPOLYLINE
  5
257
100
AcDbEntity
  8
0
  6
CONTINUOUS
 62
     7
100
AcDbPolyline
 90
       20
 70
     1
 10
46.875
 20
18.0
 10
48.5
 20
18.0
 42
0.149071
 10
49.25
 20
18.375
 42
0.185695
 10
49.5
 20
19.0
 10
49.5
 20
20.625
 10
50.5
 20
20.625
 10
50.5
 20
19.0
 42
0.185695
 10
50.75
 20
18.375
 42
0.149071
 10
51.5
 20
18.0
 10
53.125
 20
18.0
 10
53.125
 20
17.0
 10
51.5
 20
17.0
 42
0.149071
 10
50.75
 20
16.625
 42
0.185695
 10
50.5
 20
16.0
 10
50.5
 20
14.375
 10
49.5
 20
14.375
 10
49.5
 20
16.0
 42
0.185695
 10
49.25
 20
16.625
 42
0.149071
 10
48.5
 20
17.0
 10
46.875
 20
17.0
  0
LWPOLYLINE
  5
258
100
AcDbEntity
  8
0
  6
CONTINUOUS
 62
     7
100
AcDbPolyline
 90
        2
 70
     1
 10
45.0
 20
17.5
 42
-1.0
 10
55.0
 20
17.5
 42
-1.0
  0
LWPOLYLINE
  5
259
100
AcDbEntity
  8
0
  6
CONTINUOUS
 62
     7
100
AcDbPolyline
 90
       12
 70
     1
 10
48.0
 20
15.5
 10
48.875
 20
16.75
 42
0.333333
 10
48.875
 20
18.25
 10
48.0
 20
19.5
 10
49.25
 20
18.625
 42
0.333333
 10
50.75
 20
18.625
 10
52.0
 20
19.5
 10
51.125
 20
18.25
 42
0.333333
 10
51.125
 20
16.75
 10
52.0
 20
15.5
 10
50.75
 20
16.375
 42
0.333333
 10
49.25
 20
16.375
  0
LWPOLYLINE
  5
25A
100
AcDbEntity
  8
0
  6
DOT
 62
     7
100
AcDbPolyline
 90
        2
 70
     1
 10
47.5
 20
17.5
 42
-1.0
 10
52.5
 20
17.5
 42
-1.0
  0
LWPOLYLINE
  5
25B
100
AcDbEntity
  8
0
  6
DOT
 62
     7
100
AcDbPolyline
 90
        2
 70
     1
 10
48.25
 20
17.5
 42
-1.0
 10
51.75
 20
17.5
 42
-1.0
  0
LWPOLYLINE
  5
25C
100
AcDbEntity
  8
0
  6
CONTINUOUS
 62
     7
100
AcDbPolyline
 90
        2
 70
     1
 10
73.25
 20
17.5
 42
-1.0
 10
76.75
 20
17.5
 42
-1.0
  0
ARC
  5
25D
100
AcDbEntity
  8
0
  6
CONTINUOUS
 62
     7
100
AcDbCircle
 10
75.0
 20
17.5
 30
0.0
 40
3.75
100
AcDbArc
 50
0.0
 51
180.0
  0
ARC
  5
25E
100
AcDbEntity
  8
0
  6
CONTINUOUS
 62
     7
100
AcDbCircle
 10
75.0
 20
17.5
 30
0.0
 40
3.75
100
AcDbArc
 50
180.0
 51
0.0
  0
LWPOLYLINE
  5
25F
100
AcDbEntity
  8
0
  6
CONTINUOUS
 62
     7
100
AcDbPolyline
 90
        6
 70
     1
 10
75.0
 20
21.83
 10
71.25
 20
19.665
 10
71.25
 20
15.335
 10
75.0
 20
13.17
 10
78.75
 20
15.335
 10
78.75
 20
19.665
  0
LWPOLYLINE
  5
260
100
AcDbEntity
  8
0
  6
CONTINUOUS
 62
     7
100
AcDbPolyline
 90
        4
 70
     1
 10
76.767767
 20
19.267767
 42
-0.895043
 10
73.585786
 20
15.37868
 42
0.895043
 10
76.767767
 20
19.267767
 42
0.895043
 10
72.87868
 20
16.085786
 42
-0.895043
  0
LWPOLYLINE
  5
261
100
AcDbEntity
  8
0
  6
CONTINUOUS
 62
     7
100
AcDbPolyline
 90
        2
 70
     1
 10
91.5
 20
27.5
 42
-1.0
 10
83.5
 20
27.5
 42
-1.0
  0
LWPOLYLINE
  5
262
100
AcDbEntity
  8
0
  6
CONTINUOUS
 62
     7
100
AcDbPolyline
 90
        6
 70
     1
 10
87.5
 20
29.935625
 10
85.390625
 20
28.717812
 10
85.390625
 20
26.282187
 10
87.5
 20
25.064375
 10
89.609375
 20
26.282187
 10
89.609375
 20
28.717812
  0
LWPOLYLINE
  5
263
100
AcDbEntity
  8
0
  6
CONTINUOUS
 62
     7
100
AcDbPolyline
 90
        2
 70
     1
 10
90.88
 20
27.5
 42
1.000393
 10
84.12
 20
27.5
 42
1.000393
  0
LWPOLYLINE
  5
264
100
AcDbEntity
  8
0
  6
DOT
 62
     7
100
AcDbPolyline
 90
        2
 70
     1
 10
85.0
 20
27.5
 42
-1.0
 10
90.0
 20
27.5
 42
-1.0
  0
LWPOLYLINE
  5
265
100
AcDbEntity
  8
0
  6
DOT
 62
     7
100
AcDbPolyline
 90
        2
 70
     1
 10
85.75
 20
27.5
 42
-1.0
 10
89.25
 20
27.5
 42
-1.0
  0
ENDBLK
  5
266
100
AcDbEntity
  8
0
100
AcDbBlockEnd
  0
BLOCK
  5
268
100
AcDbEntity
  8
0
100
AcDbBlockBegin
  2
MASTER_48
 70
     0
 10
0.0
 20
0.0
 30
0.0
  3
MASTER_48
  1

  0
LWPOLYLINE
  5
269
100
AcDbEntity
  8
0
  6
CONTINUOUS
 62
     7
100
AcDbPolyline
 90
        6
 70
     1
 10
51.781089
 20
14.0
 10
45.718911
 20
14.0
 10
42.687822
 20
8.75
 10
45.718911
 20
3.5
 10
51.781089
 20
3.5
 10
54.812178
 20
8.75
  0
LWPOLYLINE
  5
26A
100
AcDbEntity
  8
0
  6
CONTINUOUS
 62
     7
100
AcDbPolyline
 90
        2
 70
     1
 10
25.75
 20
8.75
 42
-1.0
 10
34.75
 20
8.75
 42
-1.0
  0
LWPOLYLINE
  5
26B
100
AcDbEntity
  8
0
  6
CONTINUOUS
 62
     7
100
AcDbPolyline
 90
        6
 70
     1
 10
32.703739
 20
13.0
 10
27.796261
 20
13.0
 10
25.342523
 20
8.75
 10
27.796261
 20
4.5
 10
32.703739
 20
4.5
 10
35.157477
 20
8.75
  0
LWPOLYLINE
  5
26C
100
AcDbEntity
  8
0
  6
CONTINUOUS
 62
     7
100
AcDbPolyline
 90
        2
 70
     1
 10
27.5
 20
8.75
 42
-1.0
 10
33.0
 20
8.75
 42
-1.0
  0
LWPOLYLINE
  5
26D
100
AcDbEntity
  8
0
  6
CONTINUOUS
 62
     7
100
AcDbPolyline
 90
        2
 70
     1
 10
43.5
 20
8.75
 42
-1.0
 10
54.0
 20
8.75
 42
-1.0
  0
LWPOLYLINE
  5
26E
100
AcDbEntity
  8
0
  6
CONTINUOUS
 62
     7
100
AcDbPolyline
 90
        2
 70
     1
 10
45.5
 20
8.75
 42
-1.0
 10
52.0
 20
8.75
 42
-1.0
  0
LWPOLYLINE
  5
26F
100
AcDbEntity
  8
0
  6
CONTINUOUS
 62
     7
100
AcDbPolyline
 90
        6
 70
     1
 10
74.147114
 20
15.5
 10
66.352886
 20
15.5
 10
62.455771
 20
8.75
 10
66.352886
 20
2.0
 10
74.147114
 20
2.0
 10
78.044229
 20
8.75
  0
LWPOLYLINE
  5
270
100
AcDbEntity
  8
0
  6
CONTINUOUS
 62
     7
100
AcDbPolyline
 90
        2
 70
     1
 10
63.25
 20
8.75
 42
-1.0
 10
77.25
 20
8.75
 42
-1.0
  0
LWPOLYLINE
  5
271
100
AcDbEntity
  8
0
  6
CONTINUOUS
 62
     7
100
AcDbPolyline
 90
        2
 70
     1
 10
66.0
 20
8.75
 42
-1.0
 10
74.5
 20
8.75
 42
-1.0
  0
LWPOLYLINE
  5
272
100
AcDbEntity
  8
0
  6
CONTINUOUS
 62
     7
100
AcDbPolyline
 90
        2
 70
     1
 10
11.0
 20
8.75
 42
-1.0
 10
19.5
 20
8.75
 42
-1.0
  0
LWPOLYLINE
  5
273
100
AcDbEntity
  8
0
  6
CONTINUOUS
 62
     7
100
AcDbPolyline
 90
        6
 70
     1
 10
17.415063
 20
12.5
 10
13.084936
 20
12.5
 10
10.919873
 20
8.75
 10
13.084936
 20
5.0
 10
17.415063
 20
5.0
 10
19.580127
 20
8.75
  0
LWPOLYLINE
  5
274
100
AcDbEntity
  8
0
  6
CONTINUOUS
 62
     7
100
AcDbPolyline
 90
        2
 70
     1
 10
13.0
 20
8.75
 42
-1.0
 10
17.5
 20
8.75
 42
-1.0
  0
LWPOLYLINE
  5
275
100
AcDbEntity
  8
0
  6
CONTINUOUS
 62
     7
100
AcDbPolyline
 90
        2
 70
     1
 10
0.0
 20
8.75
 42
-1.0
 10
5.5
 20
8.75
 42
-1.0
  0
LWPOLYLINE
  5
276
100
AcDbEntity
  8
0
  6
CONTINUOUS
 62
     7
100
AcDbPolyline
 90
        6
 70
     1
 10
4.337713
 20
11.5
 10
1.162287
 20
11.5
 10
-0.425426
 20
8.75
 10
1.162287
 20
6.0
 10
4.337713
 20
6.0
 10
5.925426
 20
8.75
  0
LWPOLYLINE
  5
277
100
AcDbEntity
  8
0
  6
CONTINUOUS
 62
     7
100
AcDbPolyline
 90
        2
 70
     1
 10
1.0
 20
8.75
 42
-1.0
 10
4.5
 20
8.75
 42
-1.0
  0
LWPOLYLINE
  5
278
100
AcDbEntity
  8
0
  6
CONTINUOUS
 62
     7
100
AcDbPolyline
 90
        6
 70
     1
 10
95.801815
 20
17.5
 10
85.698185
 20
17.5
 10
80.64637
 20
8.75
 10
85.698185
 20
0.0
 10
95.801815
 20
0.0
 10
100.85363
 20
8.75
  0
LWPOLYLINE
  5
279
100
AcDbEntity
  8
0
  6
CONTINUOUS
 62
     7
100
AcDbPolyline
 90
        2
 70
     1
 10
82.5
 20
8.75
 42
-1.0
 10
99.0
 20
8.75
 42
-1.0
  0
LWPOLYLINE
  5
27A
100
AcDbEntity
  8
0
  6
CONTINUOUS
 62
     7
100
AcDbPolyline
 90
        2
 70
     1
 10
85.5
 20
8.75
 42
-1.0
 10
96.0
 20
8.75
 42
-1.0
  0
ENDBLK
  5
27B
100
AcDbEntity
  8
0
100
AcDbBlockEnd
  0
BLOCK
  5
27D
100
AcDbEntity
  8
0
100
AcDbBlockBegin
  2
SUBTITLE
 70
     0
 10
0.0
 20
0.0
 30
0.0
  3
SUBTITLE
  1

  0
MTEXT
  5
27E
100
AcDbEntity
  8
0
100
AcDbMText
 10
1.411111
 20
4.0
 30
0.0
 40
7.19123
 41
245.0
 71
     4
 72
     5
  1
\C7;\fArial|b1|i0|;\H7.1912296146154;SUBTITLE
  0
ENDBLK
  5
27F
100
AcDbEntity
  8
0
100
AcDbBlockEnd
  0
BLOCK
  5
281
100
AcDbEntity
  8
0
100
AcDbBlockBegin
  2
RAHMEN
 70
     0
 10
0.0
 20
0.0
 30
0.0
  3
RAHMEN
  1

  0
LWPOLYLINE
  5
282
100
AcDbEntity
  8
0
  6
CONTINUOUS
 62
     6
100
AcDbPolyline
 90
        4
 70
     1
 10
12.5
 20
12.5
 10
730.0
 20
12.5
 10
730.0
 20
537.221157
 10
12.5
 20
537.221157
  0
LINE
  5
283
100
AcDbEntity
  8
0
  6
CONTINUOUS
 62
     7
100
AcDbLine
 10
111.5625
 20
524.721157
 30
0.0
 11
111.5625
 21
537.221157
 31
0.0
  0
LINE
  5
284
100
AcDbEntity
  8
0
  6
CONTINUOUS
 62
     7
100
AcDbLine
 10
198.125
 20
524.721157
 30
0.0
 11
198.125
 21
537.221157
 31
0.0
  0
LINE
  5
285
100
AcDbEntity
  8
0
  6
CONTINUOUS
 62
     7
100
AcDbLine
 10
284.6875
 20
524.721157
 30
0.0
 11
284.6875
 21
537.221157
 31
0.0
  0
LINE
  5
286
100
AcDbEntity
  8
0
  6
CONTINUOUS
 62
     7
100
AcDbLine
 10
371.25
 20
524.721157
 30
0.0
 11
371.25
 21
537.221157
 31
0.0
  0
LINE
  5
287
100
AcDbEntity
  8
0
  6
CONTINUOUS
 62
     7
100
AcDbLine
 10
457.8125
 20
524.721157
 30
0.0
 11
457.8125
 21
537.221157
 31
0.0
  0
LINE
  5
288
100
AcDbEntity
  8
0
  6
CONTINUOUS
 62
     7
100
AcDbLine
 10
544.375
 20
524.721157
 30
0.0
 11
544.375
 21
537.221157
 31
0.0
  0
LINE
  5
289
100
AcDbEntity
  8
0
  6
CONTINUOUS
 62
     7
100
AcDbLine
 10
630.9375
 20
524.721157
 30
0.0
 11
630.9375
 21
537.221157
 31
0.0
  0
LINE
  5
28A
100
AcDbEntity
  8
0
  6
CONTINUOUS
 62
     7
100
AcDbLine
 10
111.5625
 20
25.0
 30
0.0
 11
111.5625
 21
12.5
 31
0.0
  0
LINE
  5
28B
100
AcDbEntity
  8
0
  6
CONTINUOUS
 62
     7
100
AcDbLine
 10
198.125
 20
25.0
 30
0.0
 11
198.125
 21
12.5
 31
0.0
  0
LINE
  5
28C
100
AcDbEntity
  8
0
  6
CONTINUOUS
 62
     7
100
AcDbLine
 10
284.6875
 20
25.0
 30
0.0
 11
284.6875
 21
12.5
 31
0.0
  0
LINE
  5
28D
100
AcDbEntity
  8
0
  6
CONTINUOUS
 62
     7
100
AcDbLine
 10
371.25
 20
25.0
 30
0.0
 11
371.25
 21
12.5
 31
0.0
  0
LINE
  5
28E
100
AcDbEntity
  8
0
  6
CONTINUOUS
 62
     7
100
AcDbLine
 10
457.8125
 20
25.0
 30
0.0
 11
457.8125
 21
12.5
 31
0.0
  0
LINE
  5
28F
100
AcDbEntity
  8
0
  6
CONTINUOUS
 62
     7
100
AcDbLine
 10
544.375
 20
25.0
 30
0.0
 11
544.375
 21
12.5
 31
0.0
  0
LINE
  5
290
100
AcDbEntity
  8
0
  6
CONTINUOUS
 62
     7
100
AcDbLine
 10
630.9375
 20
25.0
 30
0.0
 11
630.9375
 21
12.5
 31
0.0
  0
LINE
  5
291
100
AcDbEntity
  8
0
  6
CONTINUOUS
 62
     7
100
AcDbLine
 10
25.0
 20
462.256013
 30
0.0
 11
12.5
 21
462.256013
 31
0.0
  0
LINE
  5
292
100
AcDbEntity
  8
0
  6
CONTINUOUS
 62
     7
100
AcDbLine
 10
25.0
 20
399.790868
 30
0.0
 11
12.5
 21
399.790868
 31
0.0
  0
LINE
  5
293
100
AcDbEntity
  8
0
  6
CONTINUOUS
 62
     7
100
AcDbLine
 10
25.0
 20
337.325723
 30
0.0
 11
12.5
 21
337.325723
 31
0.0
  0
LINE
  5
294
100
AcDbEntity
  8
0
  6
CONTINUOUS
 62
     7
100
AcDbLine
 10
25.0
 20
274.860579
 30
0.0
 11
12.5
 21
274.860579
 31
0.0
  0
LINE
  5
295
100
AcDbEntity
  8
0
  6
CONTINUOUS
 62
     7
100
AcDbLine
 10
25.0
 20
212.395434
 30
0.0
 11
12.5
 21
212.395434
 31
0.0
  0
LINE
  5
296
100
AcDbEntity
  8
0
  6
CONTINUOUS
 62
     7
100
AcDbLine
 10
25.0
 20
149.930289
 30
0.0
 11
12.5
 21
149.930289
 31
0.0
  0
LINE
  5
297
100
AcDbEntity
  8
0
  6
CONTINUOUS
 62
     7
100
AcDbLine
 10
25.0
 20
87.465145
 30
0.0
 11
12.5
 21
87.465145
 31
0.0
  0
LINE
  5
298
100
AcDbEntity
  8
0
  6
CONTINUOUS
 62
     7
100
AcDbLine
 10
717.5
 20
462.256013
 30
0.0
 11
730.0
 21
462.256013
 31
0.0
  0
LINE
  5
299
100
AcDbEntity
  8
0
  6
CONTINUOUS
 62
     7
100
AcDbLine
 10
717.5
 20
399.790868
 30
0.0
 11
730.0
 21
399.790868
 31
0.0
  0
LINE
  5
29A
100
AcDbEntity
  8
0
  6
CONTINUOUS
 62
     7
100
AcDbLine
 10
717.5
 20
337.325723
 30
0.0
 11
730.0
 21
337.325723
 31
0.0
  0
LINE
  5
29B
100
AcDbEntity
  8
0
  6
CONTINUOUS
 62
     7
100
AcDbLine
 10
717.5
 20
274.860579
 30
0.0
 11
730.0
 21
274.860579
 31
0.0
  0
LINE
  5
29C
100
AcDbEntity
  8
0
  6
CONTINUOUS
 62
     7
100
AcDbLine
 10
717.5
 20
212.395434
 30
0.0
 11
730.0
 21
212.395434
 31
0.0
  0
LINE
  5
29D
100
AcDbEntity
  8
0
  6
CONTINUOUS
 62
     7
100
AcDbLine
 10
717.5
 20
149.930289
 30
0.0
 11
730.0
 21
149.930289
 31
0.0
  0
LINE
  5
29E
100
AcDbEntity
  8
0
  6
CONTINUOUS
 62
     7
100
AcDbLine
 10
717.5
 20
87.465145
 30
0.0
 11
730.0
 21
87.465145
 31
0.0
  0
LWPOLYLINE
  5
29F
100
AcDbEntity
  8
0
  6
CONTINUOUS
 62
     7
100
AcDbPolyline
 90
        4
 70
     1
 10
25.0
 20
524.721157
 10
25.0
 20
25.0
 10
717.5
 20
25.0
 10
717.5
 20
524.721157
  0
MTEXT
  5
2A0
100
AcDbEntity
  8
0
100
AcDbMText
 10
723.75
 20
534.89011
 30
0.0
 40
6.164012
 41
12.5
 71
     2
 72
     5
  1
\C7;\fArial|b0|i0|;\H6.1640118710697;H\PG\PF\PE\PD\PC\PB\PA\P
  0
MTEXT
  5
2A1
100
AcDbEntity
  8
0
100
AcDbMText
 10
12.5
 20
18.75
 30
0.0
 40
6.164012
 41
717.5
 71
     4
 72
     5
  1
\C7;\fArial|b0|i0|;\H6.1640118710697;87654321
  0
MTEXT
  5
2A2
100
AcDbEntity
  8
0
100
AcDbMText
 10
18.75
 20
534.89011
 30
0.0
 40
6.164012
 41
12.5
 71
     2
 72
     5
  1
\C7;\fArial|b0|i0|;\H6.1640118710697;H\PG\PF\PE\PD\PC\PB\PA\P
  0
MTEXT
  5
2A3
100
AcDbEntity
  8
0
100
AcDbMText
 10
12.5
 20
530.971157
 30
0.0
 40
6.164012
 41
717.5
 71
     4
 72
     5
  1
\C7;\fArial|b0|i0|;\H6.1640118710697;87654321
  0
ENDBLK
  5
2A4
100
AcDbEntity
  8
0
100
AcDbBlockEnd
  0
BLOCK
  5
2A6
100
AcDbEntity
  8
0
100
AcDbBlockBegin
  2
MASTER_51
 70
     0
 10
0.0
 20
0.0
 30
0.0
  3
MASTER_51
  1

  0
LINE
  5
2A7
100
AcDbEntity
  8
0
  6
DASHDOT
 62
     7
100
AcDbLine
 10
0.0
 20
12.7
 30
0.0
 11
86.0
 21
12.7
 31
0.0
  0
ENDBLK
  5
2A8
100
AcDbEntity
  8
0
100
AcDbBlockEnd
  0
BLOCK
  5
2AA
100
AcDbEntity
  8
0
100
AcDbBlockBegin
  2
TITLE
 70
     0
 10
0.0
 20
0.0
 30
0.0
  3
TITLE
  1

  0
MTEXT
  5
2AB
100
AcDbEntity
  8
0
100
AcDbMText
 10
1.411111
 20
5.0
 30
0.0
 40
9.245947
 41
147.5
 71
     4
 72
     5
  1
\C7;\fArial|b1|i0|;\H9.245947265625;TITLE
  0
ENDBLK
  5
2AC
100
AcDbEntity
  8
0
100
AcDbBlockEnd
  0
BLOCK
  5
2AE
100
AcDbEntity
  8
0
100
AcDbBlockBegin
  2
DESCRIPTION
 70
     0
 10
0.0
 20
0.0
 30
0.0
  3
DESCRIPTION
  1

  0
MTEXT
  5
2AF
100
AcDbEntity
  8
0
100
AcDbMText
 10
1.411111
 20
2.916667
 30
0.0
 40
5.136653
 41
82.0
 71
     4
 72
     5
  1
\C7;\fArial|b1|i0|;\H5.1366530455649;DESCRIPTION
  0
ENDBLK
  5
2B0
100
AcDbEntity
  8
0
100
AcDbBlockEnd
  0
BLOCK
  5
2B2
100
AcDbEntity
  8
0
100
AcDbBlockBegin
  2
MASTER_54
 70
     0
 10
0.0
 20
0.0
 30
0.0
  3
MASTER_54
  1

  0
LWPOLYLINE
  5
2B3
100
AcDbEntity
  8
0
  6
CONTINUOUS
 62
     7
100
AcDbPolyline
 90
        2
 70
     1
 10
26.5
 20
1.583333
 10
26.5
 20
11.641667
  0
LWPOLYLINE
  5
2B4
100
AcDbEntity
  8
0
  6
CONTINUOUS
 62
     7
100
AcDbPolyline
 90
        2
 70
     1
 10
0.0
 20
1.583333
 10
0.0
 20
11.641667
  0
LINE
  5
2B5
100
AcDbEntity
  8
0
  6
CONTINUOUS
 62
     7
100
AcDbLine
 10
13.25
 20
3.7
 30
0.0
 11
26.5
 21
3.7
 31
0.0
  0
LINE
  5
2B6
100
AcDbEntity
  8
0
  6
CONTINUOUS
 62
     7
100
AcDbLine
 10
13.25
 20
3.7
 30
0.0
 11
0.0
 21
3.7
 31
0.0
  0
MTEXT
  5
2B7
100
AcDbEntity
  8
0
100
AcDbMText
 10
11.5
 20
5.499782
 30
0.0
 40
3.081935
 41
9.676842
 71
     5
 72
     5
  1
\C7;\fArial|b0|i0|;\H3.0819353945553;26,5\P0mm
  0
ENDBLK
  5
2B8
100
AcDbEntity
  8
0
100
AcDbBlockEnd
  0
BLOCK
  5
2BA
100
AcDbEntity
  8
0
100
AcDbBlockBegin
  2
MASTER_55
 70
     2
 10
0.0
 20
0.0
 30
0.0
  3
MASTER_55
  1

  0
ATTDEF
  5
2BB
100
AcDbEntity
  8
0
100
AcDbText
 10
0.0
 20
12.7
 30
0.0
 40
0.2
  1
0.00
100
AcDbAttributeDefinition
  3
Genauigkeit
  2
LPREC
 70
     0
  0
ATTDEF
  5
2BC
100
AcDbEntity
  8
0
100
AcDbText
 10
0.0
 20
12.7
 30
0.0
 40
0.2
  1
Zeichenblatteinheiten verwenden
100
AcDbAttributeDefinition
  3
Einheiten
  2
LUNITS
 70
     0
  0
ATTDEF
  5
2BD
100
AcDbEntity
  8
0
100
AcDbText
 10
0.0
 20
12.7
 30
0.0
 40
0.2
  1
Ma\U+00DFeinheiten anzeigen
100
AcDbAttributeDefinition
  3
Ma\U+00DFeinheitenanzeige
  2
SHOWUNITS
 70
     0
  0
ATTDEF
  5
2BE
100
AcDbEntity
  8
0
100
AcDbText
 10
0.0
 20
12.7
 30
0.0
 40
0.2
  1
Beide
100
AcDbAttributeDefinition
  3
Erweiterungslinien
  2
EXTENSIONS
 70
     0
  0
ATTDEF
  5
2BF
100
AcDbEntity
  8
0
100
AcDbText
 10
0.0
 20
12.7
 30
0.0
 40
0.2
  1
0
100
AcDbAttributeDefinition
  3
Winkel
  2
ANGLE
 70
     0
  0
LWPOLYLINE
  5
2C0
100
AcDbEntity
  8
0
  6
CONTINUOUS
 62
     7
100
AcDbPolyline
 90
        2
 70
     1
 10
0.0
 20
22.522222
 10
0.0
 20
14.111111
  0
LWPOLYLINE
  5
2C1
100
AcDbEntity
  8
0
  6
CONTINUOUS
 62
     7
100
AcDbPolyline
 90
        2
 70
     1
 10
25.0
 20
22.522222
 10
25.0
 20
14.111111
  0
LINE
  5
2C2
100
AcDbEntity
  8
0
  6
CONTINUOUS
 62
     7
100
AcDbLine
 10
12.5
 20
19.7
 30
0.0
 11
0.0
 21
19.7
 31
0.0
  0
LINE
  5
2C3
100
AcDbEntity
  8
0
  6
CONTINUOUS
 62
     7
100
AcDbLine
 10
12.5
 20
19.7
 30
0.0
 11
25.0
 21
19.7
 31
0.0
  0
MTEXT
  5
2C4
100
AcDbEntity
  8
0
100
AcDbMText
 10
15.0
 20
23.099517
 30
0.0
 40
4.109294
 41
12.814054
 71
     5
 72
     5
  1
\C7;\fArial|b0|i0|;\H4.1092942200601;25,0\P0mm
  0
ENDBLK
  5
2C5
100
AcDbEntity
  8
0
100
AcDbBlockEnd
  0
ENDSEC
  0
SECTION
  2
ENTITIES
  0
LWPOLYLINE
  5
32
102
{ACAD_REACTORS
330
31
102
}
100
AcDbEntity
  8
0
  6
CONTINUOUS
 62
     7
100
AcDbPolyline
 90
        4
 70
     1
 10
-0.040987
 20
0.0
 10
209.959013
 20
0.0
 10
209.959013
 20
247.5
 10
-0.040987
 20
247.5
  0
LWPOLYLINE
  5
33
102
{ACAD_REACTORS
330
31
102
}
100
AcDbEntity
  8
0
  6
CONTINUOUS
 62
     7
100
AcDbPolyline
 90
        2
 70
     1
 10
197.315962
 20
10.922454
 42
-1.0
 10
193.684038
 20
18.050506
 42
-1.0
  0
ELLIPSE
  5
34
102
{ACAD_REACTORS
330
31
102
}
100
AcDbEntity
  8
0
  6
CONTINUOUS
 62
     7
100
AcDbEllipse
 10
187.480941
 20
10.400565
 30
0.0
 11
-1.3619714992186405
 21
2.6730195725650465
 31
0.0
210
0.0
220
0.0
230
1.0
 40
0.666667
 41
0.0000000000000004
 42
3.1415926535897927
  0
ELLIPSE
  5
35
102
{ACAD_REACTORS
330
31
102
}
100
AcDbEntity
  8
0
  6
CONTINUOUS
 62
     7
100
AcDbEllipse
 10
187.480941
 20
10.400565
 30
0.0
 11
-1.3619714992186405
 21
2.6730195725650465
 31
0.0
210
0.0
220
0.0
230
1.0
 40
0.666667
 41
3.1415926535897931
 42
6.2831853071796004
  0
ELLIPSE
  5
36
102
{ACAD_REACTORS
330
31
102
}
100
AcDbEntity
  8
0
  6
CONTINUOUS
 62
     7
100
AcDbEllipse
 10
203.519059
 20
18.572394
 30
0.0
 11
1.3619714992186207
 21
-2.6730195725650572
 31
0.0
210
0.0
220
0.0
230
1.0
 40
0.666667
 41
0.0000000000000004
 42
3.1415926535897927
  0
ELLIPSE
  5
37
102
{ACAD_REACTORS
330
31
102
}
100
AcDbEntity
  8
0
  6
CONTINUOUS
 62
     7
100
AcDbEllipse
 10
203.519059
 20
18.572394
 30
0.0
 11
1.3619714992186207
 21
-2.6730195725650572
 31
0.0
210
0.0
220
0.0
230
1.0
 40
0.666667
 41
3.1415926535897931
 42
6.2831853071796004
  0
ELLIPSE
  5
38
102
{ACAD_REACTORS
330
31
102
}
100
AcDbEntity
  8
0
  6
CONTINUOUS
 62
     7
100
AcDbEllipse
 10
191.414086
 20
22.505538
 30
0.0
 11
2.673019572565043
 21
1.361971499218648
 31
0.0
210
0.0
220
0.0
230
1.0
 40
0.666667
 41
0.0000000000000004
 42
3.1415926535897927
  0
ELLIPSE
  5
39
102
{ACAD_REACTORS
330
31
102
}
100
AcDbEntity
  8
0
  6
CONTINUOUS
 62
     7
100
AcDbEllipse
 10
191.414086
 20
22.505538
 30
0.0
 11
2.673019572565043
 21
1.361971499218648
 31
0.0
210
0.0
220
0.0
230
1.0
 40
0.666667
 41
3.1415926535897931
 42
6.2831853071796004
  0
ELLIPSE
  5
3A
102
{ACAD_REACTORS
330
31
102
}
100
AcDbEntity
  8
0
  6
CONTINUOUS
 62
     7
100
AcDbEllipse
 10
199.608614
 20
6.422871
 30
0.0
 11
-2.6730195725650576
 21
-1.3619714992186196
 31
0.0
210
0.0
220
0.0
230
1.0
 40
0.666667
 41
0.0000000000000004
 42
3.1415926535897927
  0
ELLIPSE
  5
3B
102
{ACAD_REACTORS
330
31
102
}
100
AcDbEntity
  8
0
  6
CONTINUOUS
 62
     7
100
AcDbEllipse
 10
199.608614
 20
6.422871
 30
0.0
 11
-2.6730195725650576
 21
-1.3619714992186196
 31
0.0
210
0.0
220
0.0
230
1.0
 40
0.666667
 41
3.1415926535897931
 42
6.2831853071796004
  0
LWPOLYLINE
  5
3C
102
{ACAD_REACTORS
330
31
102
}
100
AcDbEntity
  8
0
  6
CONTINUOUS
 62
     7
100
AcDbPolyline
 90
        8
 70
     1
 10
156.366467
 20
78.180202
 10
166.940799
 20
57.426908
 42
0.414214
 10
172.320787
 20
55.678843
 10
175.884813
 20
57.494805
 42
0.414214
 10
177.632877
 20
62.874794
 10
167.058545
 20
83.628088
 42
0.414214
 10
161.678557
 20
85.376152
 10
158.114531
 20
83.56019
 42
0.414214
  0
LWPOLYLINE
  5
3D
102
{ACAD_REACTORS
330
31
102
}
100
AcDbEntity
  8
0
  6
CONTINUOUS
 62
     7
100
AcDbPolyline
 90
       15
 70
     1
 10
191.186816
 20
28.866504
 42
0.044924
 10
188.690143
 20
27.865098
 42
0.002262
 10
188.569474
 20
27.802925
 42
0.044996
 10
186.301451
 20
26.348489
 42
-0.039948
 10
185.767768
 20
25.998609
 42
0.025601
 10
184.639676
 20
24.957586
 42
-0.513017
 10
181.427879
 20
25.448074
 10
180.284478
 20
27.692124
 10
170.623524
 20
46.652813
 42
-0.414214
 10
172.371589
 20
52.032801
 10
178.608634
 20
55.210735
 42
-0.414214
 10
183.988622
 20
53.462671
 10
193.633865
 20
34.532816
 10
194.808688
 20
32.227097
 42
-0.513017
 10
193.317654
 20
29.340396
 42
0.03643
  0
LWPOLYLINE
  5
3E
102
{ACAD_REACTORS
330
31
102
}
100
AcDbEntity
  8
0
  6
CONTINUOUS
 62
     7
100
AcDbPolyline
 90
        6
 70
     1
 10
188.290869
 20
18.511208
 10
187.054496
 20
18.91293
 42
0.414214
 10
185.038378
 20
17.885667
 42
0.414214
 10
186.065642
 20
15.869549
 10
187.302015
 20
15.467827
 42
0.414214
 10
189.318133
 20
16.49509
 42
0.414214
  0
LWPOLYLINE
  5
3F
102
{ACAD_REACTORS
330
31
102
}
100
AcDbEntity
  8
0
  6
CONTINUOUS
 62
     7
100
AcDbPolyline
 90
        6
 70
     1
 10
204.934358
 20
13.10341
 10
203.697985
 20
13.505133
 42
0.414214
 10
201.681867
 20
12.477869
 42
0.414214
 10
202.709131
 20
10.461752
 10
203.945504
 20
10.06003
 42
0.414214
 10
205.961622
 20
11.087293
 42
0.414214
  0
LWPOLYLINE
  5
40
102
{ACAD_REACTORS
330
31
102
}
100
AcDbEntity
  8
0
  6
CONTINUOUS
 62
     7
100
AcDbPolyline
 90
        6
 70
     1
 10
191.475272
 20
7.277349
 10
191.07355
 20
6.040976
 42
0.414214
 10
192.100813
 20
4.024858
 42
0.414214
 10
194.116931
 20
5.052121
 10
194.518653
 20
6.288495
 42
0.414214
 10
193.49139
 20
8.304612
 42
0.414214
  0
LWPOLYLINE
  5
41
102
{ACAD_REACTORS
330
31
102
}
100
AcDbEntity
  8
0
  6
CONTINUOUS
 62
     7
100
AcDbPolyline
 90
        6
 70
     1
 10
196.883069
 20
23.920838
 10
196.481347
 20
22.684465
 42
0.414214
 10
197.50861
 20
20.668347
 42
0.414214
 10
199.524728
 20
21.69561
 10
199.92645
 20
22.931984
 42
0.414214
 10
198.899187
 20
24.948101
 42
0.414214
  0
LWPOLYLINE
  5
42
102
{ACAD_REACTORS
330
31
102
}
100
AcDbEntity
  8
0
  6
CONTINUOUS
 62
     7
100
AcDbPolyline
 90
        2
 70
     1
 10
13.332134
 20
10.857557
 42
1.0
 10
15.590866
 20
18.532069
 42
1.0
  0
ELLIPSE
  5
43
102
{ACAD_REACTORS
330
31
102
}
100
AcDbEntity
  8
0
  6
CONTINUOUS
 62
     7
100
AcDbEllipse
 10
23.095326
 20
12.15374
 30
0.0
 11
0.8470243705285991
 21
2.8779419236201287
 31
0.0
210
0.0
220
0.0
230
1.0
 40
0.666667
 41
-3.1415926535897927
 42
-0.0000000000000004
  0
ELLIPSE
  5
44
102
{ACAD_REACTORS
330
31
102
}
100
AcDbEntity
  8
0
  6
CONTINUOUS
 62
     7
100
AcDbEllipse
 10
23.095326
 20
12.15374
 30
0.0
 11
0.8470243705285991
 21
2.8779419236201287
 31
0.0
210
0.0
220
0.0
230
1.0
 40
0.666667
 41
-6.2831853071796004
 42
-3.1415926535897931
  0
ELLIPSE
  5
45
102
{ACAD_REACTORS
330
31
102
}
100
AcDbEntity
  8
0
  6
CONTINUOUS
 62
     7
100
AcDbEllipse
 10
5.827674
 20
17.235886
 30
0.0
 11
-0.8470243705285797
 21
-2.877941923620134
 31
0.0
210
0.0
220
0.0
230
1.0
 40
0.666667
 41
-3.1415926535897927
 42
-0.0000000000000004
  0
ELLIPSE
  5
46
102
{ACAD_REACTORS
330
31
102
}
100
AcDbEntity
  8
0
  6
CONTINUOUS
 62
     7
100
AcDbEllipse
 10
5.827674
 20
17.235886
 30
0.0
 11
-0.8470243705285797
 21
-2.877941923620134
 31
0.0
210
0.0
220
0.0
230
1.0
 40
0.666667
 41
-6.2831853071796004
 42
-3.1415926535897931
  0
ELLIPSE
  5
47
102
{ACAD_REACTORS
330
31
102
}
100
AcDbEntity
  8
0
  6
CONTINUOUS
 62
     7
100
AcDbEllipse
 10
17.002573
 20
23.328639
 30
0.0
 11
-2.8779419236201265
 21
0.8470243705286076
 31
0.0
210
0.0
220
0.0
230
1.0
 40
0.666667
 41
-3.1415926535897927
 42
-0.0000000000000004
  0
ELLIPSE
  5
48
102
{ACAD_REACTORS
330
31
102
}
100
AcDbEntity
  8
0
  6
CONTINUOUS
 62
     7
100
AcDbEllipse
 10
17.002573
 20
23.328639
 30
0.0
 11
-2.8779419236201265
 21
0.8470243705286076
 31
0.0
210
0.0
220
0.0
230
1.0
 40
0.666667
 41
-6.2831853071796004
 42
-3.1415926535897931
  0
ELLIPSE
  5
49
102
{ACAD_REACTORS
330
31
102
}
100
AcDbEntity
  8
0
  6
CONTINUOUS
 62
     7
100
AcDbEllipse
 10
11.90631
 20
6.013022
 30
0.0
 11
2.8779419236201358
 21
-0.8470243705285746
 31
0.0
210
0.0
220
0.0
230
1.0
 40
0.666667
 41
-3.1415926535897927
 42
-0.0000000000000004
  0
ELLIPSE
  5
4A
102
{ACAD_REACTORS
330
31
102
}
100
AcDbEntity
  8
0
  6
CONTINUOUS
 62
     7
100
AcDbEllipse
 10
11.90631
 20
6.013022
 30
0.0
 11
2.8779419236201358
 21
-0.8470243705285746
 31
0.0
210
0.0
220
0.0
230
1.0
 40
0.666667
 41
-6.2831853071796004
 42
-3.1415926535897931
  0
LWPOLYLINE
  5
4B
102
{ACAD_REACTORS
330
31
102
}
100
AcDbEntity
  8
0
  6
CONTINUOUS
 62
     7
100
AcDbPolyline
 90
        8
 70
     1
 10
40.172145
 20
80.971629
 10
34.634399
 20
62.155981
 42
-0.414214
 10
29.667777
 20
59.448091
 10
25.830521
 20
60.577457
 42
-0.414214
 10
23.122631
 20
65.544079
 10
28.660378
 20
84.359726
 42
-0.414214
 10
33.626999
 20
87.067616
 10
37.464255
 20
85.938251
 42
-0.414214
  0
LWPOLYLINE
  5
4C
102
{ACAD_REACTORS
330
31
102
}
100
AcDbEntity
  8
0
  6
CONTINUOUS
 62
     7
100
AcDbPolyline
 90
       15
 70
     1
 10
16.055856
 20
29.622863
 42
-0.044924
 10
18.694135
 20
29.097812
 42
-0.002262
 10
18.82418
 20
29.058897
 42
-0.044996
 10
21.321047
 20
28.046487
 42
0.039948
 10
21.909983
 20
27.800749
 42
-0.025601
 10
23.210322
 20
26.985004
 42
0.513017
 10
26.277085
 20
28.057937
 10
26.988178
 20
30.474023
 10
32.996427
 20
50.8883
 42
0.414214
 10
30.288537
 20
55.854922
 10
23.573339
 20
57.831312
 42
0.414214
 10
18.606717
 20
55.123422
 10
12.608239
 20
34.742344
 10
11.877605
 20
32.259861
 42
0.513017
 10
13.874207
 20
29.696698
 42
-0.03643
  0
LWPOLYLINE
  5
4D
102
{ACAD_REACTORS
330
31
102
}
100
AcDbEntity
  8
0
  6
CONTINUOUS
 62
     7
100
AcDbPolyline
 90
        6
 70
     1
 10
20.807255
 20
19.97699
 10
21.948633
 20
20.599289
 42
-0.414214
 10
24.119313
 20
19.960424
 42
-0.414214
 10
23.480447
 20
17.789744
 10
22.339069
 20
17.167444
 42
-0.414214
 10
20.168389
 20
17.80631
 42
-0.414214
  0
LWPOLYLINE
  5
4E
102
{ACAD_REACTORS
330
31
102
}
100
AcDbEntity
  8
0
  6
CONTINUOUS
 62
     7
100
AcDbPolyline
 90
        6
 70
     1
 10
5.442553
 20
11.599882
 10
6.583931
 20
12.222182
 42
-0.414214
 10
8.754611
 20
11.583316
 42
-0.414214
 10
8.115745
 20
9.412636
 10
6.974367
 20
8.790337
 42
-0.414214
 10
4.803687
 20
9.429203
 42
-0.414214
  0
LWPOLYLINE
  5
4F
102
{ACAD_REACTORS
330
31
102
}
100
AcDbEntity
  8
0
  6
CONTINUOUS
 62
     7
100
AcDbPolyline
 90
        6
 70
     1
 10
19.743677
 20
8.349058
 10
20.365976
 20
7.20768
 42
-0.414214
 10
19.72711
 20
5.037
 42
-0.414214
 10
17.556431
 20
5.675866
 10
16.934131
 20
6.817244
 42
-0.414214
 10
17.572997
 20
8.987924
 42
-0.414214
  0
LWPOLYLINE
  5
50
102
{ACAD_REACTORS
330
31
102
}
100
AcDbEntity
  8
0
  6
CONTINUOUS
 62
     7
100
AcDbPolyline
 90
        6
 70
     1
 10
11.366569
 20
23.71376
 10
11.988869
 20
22.572382
 42
-0.414214
 10
11.350003
 20
20.401702
 42
-0.414214
 10
9.179323
 20
21.040568
 10
8.557024
 20
22.181946
 42
-0.414214
 10
9.19589
 20
24.352626
 42
-0.414214
  0
LWPOLYLINE
  5
51
102
{ACAD_REACTORS
330
31
102
}
100
AcDbEntity
  8
0
  6
CONTINUOUS
 62
     7
100
AcDbPolyline
 90
        2
 70
     1
 10
197.274975
 20
236.543565
 42
1.0
 10
193.643051
 20
229.415513
 42
1.0
  0
ELLIPSE
  5
52
102
{ACAD_REACTORS
330
31
102
}
100
AcDbEntity
  8
0
  6
CONTINUOUS
 62
     7
100
AcDbEllipse
 10
187.439954
 20
237.065453
 30
0.0
 11
-1.3619714992186034
 21
-2.6730195725650656
 31
0.0
210
0.0
220
0.0
230
1.0
 40
0.666667
 41
-3.1415926535897927
 42
-0.0000000000000004
  0
ELLIPSE
  5
53
102
{ACAD_REACTORS
330
31
102
}
100
AcDbEntity
  8
0
  6
CONTINUOUS
 62
     7
100
AcDbEllipse
 10
187.439954
 20
237.065453
 30
0.0
 11
-1.3619714992186034
 21
-2.6730195725650656
 31
0.0
210
0.0
220
0.0
230
1.0
 40
0.666667
 41
-6.2831853071796004
 42
-3.1415926535897931
  0
ELLIPSE
  5
54
102
{ACAD_REACTORS
330
31
102
}
100
AcDbEntity
  8
0
  6
CONTINUOUS
 62
     7
100
AcDbEllipse
 10
203.478072
 20
228.893624
 30
0.0
 11
1.3619714992185823
 21
2.6730195725650763
 31
0.0
210
0.0
220
0.0
230
1.0
 40
0.666667
 41
-3.1415926535897927
 42
-0.0000000000000004
  0
ELLIPSE
  5
55
102
{ACAD_REACTORS
330
31
102
}
100
AcDbEntity
  8
0
  6
CONTINUOUS
 62
     7
100
AcDbEllipse
 10
203.478072
 20
228.893624
 30
0.0
 11
1.3619714992185823
 21
2.6730195725650763
 31
0.0
210
0.0
220
0.0
230
1.0
 40
0.666667
 41
-6.2831853071796004
 42
-3.1415926535897931
  0
ELLIPSE
  5
56
102
{ACAD_REACTORS
330
31
102
}
100
AcDbEntity
  8
0
  6
CONTINUOUS
 62
     7
100
AcDbEllipse
 10
191.373098
 20
224.96048
 30
0.0
 11
2.6730195725650621
 21
-1.3619714992186105
 31
0.0
210
0.0
220
0.0
230
1.0
 40
0.666667
 41
-3.1415926535897927
 42
-0.0000000000000004
  0
ELLIPSE
  5
57
102
{ACAD_REACTORS
330
31
102
}
100
AcDbEntity
  8
0
  6
CONTINUOUS
 62
     7
100
AcDbEllipse
 10
191.373098
 20
224.96048
 30
0.0
 11
2.6730195725650621
 21
-1.3619714992186105
 31
0.0
210
0.0
220
0.0
230
1.0
 40
0.666667
 41
-6.2831853071796004
 42
-3.1415926535897931
  0
ELLIPSE
  5
58
102
{ACAD_REACTORS
330
31
102
}
100
AcDbEntity
  8
0
  6
CONTINUOUS
 62
     7
100
AcDbEllipse
 10
199.567627
 20
241.043148
 30
0.0
 11
-2.6730195725650763
 21
1.3619714992185825
 31
0.0
210
0.0
220
0.0
230
1.0
 40
0.666667
 41
-3.1415926535897927
 42
-0.0000000000000004
  0
ELLIPSE
  5
59
102
{ACAD_REACTORS
330
31
102
}
100
AcDbEntity
  8
0
  6
CONTINUOUS
 62
     7
100
AcDbEllipse
 10
199.567627
 20
241.043148
 30
0.0
 11
-2.6730195725650763
 21
1.3619714992185825
 31
0.0
210
0.0
220
0.0
230
1.0
 40
0.666667
 41
-6.2831853071796004
 42
-3.1415926535897931
  0
LWPOLYLINE
  5
5A
102
{ACAD_REACTORS
330
31
102
}
100
AcDbEntity
  8
0
  6
CONTINUOUS
 62
     7
100
AcDbPolyline
 90
        8
 70
     1
 10
155.939312
 20
168.527919
 10
166.899811
 20
190.039111
 42
-0.414214
 10
172.2798
 20
191.787175
 10
175.843826
 20
189.971213
 42
-0.414214
 10
177.59189
 20
184.591225
 10
166.63139
 20
163.080033
 42
-0.414214
 10
161.251402
 20
161.331969
 10
157.687376
 20
163.147931
 42
-0.414214
  0
LWPOLYLINE
  5
5B
102
{ACAD_REACTORS
330
31
102
}
100
AcDbEntity
  8
0
  6
CONTINUOUS
 62
     7
100
AcDbPolyline
 90
       15
 70
     1
 10
191.145829
 20
218.599514
 42
-0.044924
 10
188.649155
 20
219.600921
 42
-0.002262
 10
188.528487
 20
219.663094
 42
-0.044996
 10
186.260464
 20
221.11753
 42
0.039948
 10
185.726781
 20
221.467409
 42
-0.025601
 10
184.598689
 20
222.508433
 42
0.513017
 10
181.386892
 20
222.017945
 10
180.243491
 20
219.773895
 10
170.582537
 20
200.813206
 42
0.414214
 10
172.330602
 20
195.433217
 10
178.567647
 20
192.255284
 42
0.414214
 10
183.947635
 20
194.003348
 10
193.592878
 20
212.933203
 10
194.7677
 20
215.238922
 42
0.513017
 10
193.276667
 20
218.125622
 42
-0.03643
  0
LWPOLYLINE
  5
5C
102
{ACAD_REACTORS
330
31
102
}
100
AcDbEntity
  8
0
  6
CONTINUOUS
 62
     7
100
AcDbPolyline
 90
        6
 70
     1
 10
188.249882
 20
228.954811
 10
187.013509
 20
228.553089
 42
-0.414214
 10
184.997391
 20
229.580352
 42
-0.414214
 10
186.024654
 20
231.59647
 10
187.261028
 20
231.998192
 42
-0.414214
 10
189.277146
 20
230.970928
 42
-0.414214
  0
LWPOLYLINE
  5
5D
102
{ACAD_REACTORS
330
31
102
}
100
AcDbEntity
  8
0
  6
CONTINUOUS
 62
     7
100
AcDbPolyline
 90
        6
 70
     1
 10
204.893371
 20
234.362608
 10
203.656998
 20
233.960886
 42
-0.414214
 10
201.64088
 20
234.988149
 42
-0.414214
 10
202.668144
 20
237.004267
 10
203.904517
 20
237.405989
 42
-0.414214
 10
205.920635
 20
236.378726
 42
-0.414214
  0
LWPOLYLINE
  5
5E
102
{ACAD_REACTORS
330
31
102
}
100
AcDbEntity
  8
0
  6
CONTINUOUS
 62
     7
100
AcDbPolyline
 90
        6
 70
     1
 10
191.434285
 20
240.188669
 10
191.032563
 20
241.425043
 42
-0.414214
 10
192.059826
 20
243.441161
 42
-0.414214
 10
194.075944
 20
242.413897
 10
194.477666
 20
241.177524
 42
-0.414214
 10
193.450402
 20
239.161406
 42
-0.414214
  0
LWPOLYLINE
  5
5F
102
{ACAD_REACTORS
330
31
102
}
100
AcDbEntity
  8
0
  6
CONTINUOUS
 62
     7
100
AcDbPolyline
 90
        6
 70
     1
 10
196.842082
 20
223.54518
 10
196.44036
 20
224.781554
 42
-0.414214
 10
197.467623
 20
226.797672
 42
-0.414214
 10
199.483741
 20
225.770408
 10
199.885463
 20
224.534035
 42
-0.414214
 10
198.8582
 20
222.517917
 42
-0.414214
  0
LWPOLYLINE
  5
60
102
{ACAD_REACTORS
330
31
102
}
100
AcDbEntity
  8
0
  6
CONTINUOUS
 62
     7
100
AcDbPolyline
 90
        2
 70
     1
 10
13.291147
 20
236.608461
 42
-1.0
 10
15.549879
 20
228.93395
 42
-1.0
  0
ELLIPSE
  5
61
102
{ACAD_REACTORS
330
31
102
}
100
AcDbEntity
  8
0
  6
CONTINUOUS
 62
     7
100
AcDbEllipse
 10
23.054339
 20
235.312279
 30
0.0
 11
0.84702437052864
 21
-2.8779419236201167
 31
0.0
210
0.0
220
0.0
230
1.0
 40
0.666667
 41
0.0000000000000004
 42
3.1415926535897927
  0
ELLIPSE
  5
62
102
{ACAD_REACTORS
330
31
102
}
100
AcDbEntity
  8
0
  6
CONTINUOUS
 62
     7
100
AcDbEllipse
 10
23.054339
 20
235.312279
 30
0.0
 11
0.84702437052864
 21
-2.8779419236201167
 31
0.0
210
0.0
220
0.0
230
1.0
 40
0.666667
 41
3.1415926535897931
 42
6.2831853071796004
  0
ELLIPSE
  5
63
102
{ACAD_REACTORS
330
31
102
}
100
AcDbEntity
  8
0
  6
CONTINUOUS
 62
     7
100
AcDbEllipse
 10
5.786687
 20
230.230132
 30
0.0
 11
-0.8470243705286187
 21
2.8779419236201229
 31
0.0
210
0.0
220
0.0
230
1.0
 40
0.666667
 41
0.0000000000000004
 42
3.1415926535897927
  0
ELLIPSE
  5
64
102
{ACAD_REACTORS
330
31
102
}
100
AcDbEntity
  8
0
  6
CONTINUOUS
 62
     7
100
AcDbEllipse
 10
5.786687
 20
230.230132
 30
0.0
 11
-0.8470243705286187
 21
2.8779419236201229
 31
0.0
210
0.0
220
0.0
230
1.0
 40
0.666667
 41
3.1415926535897931
 42
6.2831853071796004
  0
ELLIPSE
  5
65
102
{ACAD_REACTORS
330
31
102
}
100
AcDbEntity
  8
0
  6
CONTINUOUS
 62
     7
100
AcDbEllipse
 10
16.961586
 20
224.13738
 30
0.0
 11
-2.8779419236201145
 21
-0.8470243705286478
 31
0.0
210
0.0
220
0.0
230
1.0
 40
0.666667
 41
0.0000000000000004
 42
3.1415926535897927
  0
ELLIPSE
  5
66
102
{ACAD_REACTORS
330
31
102
}
100
AcDbEntity
  8
0
  6
CONTINUOUS
 62
     7
100
AcDbEllipse
 10
16.961586
 20
224.13738
 30
0.0
 11
-2.8779419236201145
 21
-0.8470243705286478
 31
0.0
210
0.0
220
0.0
230
1.0
 40
0.666667
 41
3.1415926535897931
 42
6.2831853071796004
  0
ELLIPSE
  5
67
102
{ACAD_REACTORS
330
31
102
}
100
AcDbEntity
  8
0
  6
CONTINUOUS
 62
     7
100
AcDbEllipse
 10
11.865323
 20
241.452997
 30
0.0
 11
2.8779419236201238
 21
0.847024370528616
 31
0.0
210
0.0
220
0.0
230
1.0
 40
0.666667
 41
0.0000000000000004
 42
3.1415926535897927
  0
ELLIPSE
  5
68
102
{ACAD_REACTORS
330
31
102
}
100
AcDbEntity
  8
0
  6
CONTINUOUS
 62
     7
100
AcDbEllipse
 10
11.865323
 20
241.452997
 30
0.0
 11
2.8779419236201238
 21
0.847024370528616
 31
0.0
210
0.0
220
0.0
230
1.0
 40
0.666667
 41
3.1415926535897931
 42
6.2831853071796004
  0
LWPOLYLINE
  5
69
102
{ACAD_REACTORS
330
31
102
}
100
AcDbEntity
  8
0
  6
CONTINUOUS
 62
     7
100
AcDbPolyline
 90
        8
 70
     1
 10
40.131158
 20
166.49439
 10
34.593412
 20
185.310037
 42
0.414214
 10
29.62679
 20
188.017928
 10
25.789534
 20
186.888562
 42
0.414214
 10
23.081644
 20
181.92194
 10
28.61939
 20
163.106292
 42
0.414214
 10
33.586012
 20
160.398402
 10
37.423268
 20
161.527768
 42
0.414214
  0
LWPOLYLINE
  5
6A
102
{ACAD_REACTORS
330
31
102
}
100
AcDbEntity
  8
0
  6
CONTINUOUS
 62
     7
100
AcDbPolyline
 90
       15
 70
     1
 10
16.014869
 20
217.843155
 42
0.044924
 10
18.653148
 20
218.368206
 42
0.002262
 10
18.783193
 20
218.407121
 42
0.044996
 10
21.28006
 20
219.419532
 42
-0.039948
 10
21.868996
 20
219.665269
 42
0.025601
 10
23.169335
 20
220.481014
 42
-0.513017
 10
26.236098
 20
219.408081
 10
26.947191
 20
216.991995
 10
32.95544
 20
196.577718
 42
-0.414214
 10
30.24755
 20
191.611097
 10
23.532352
 20
189.634706
 42
-0.414214
 10
18.56573
 20
192.342596
 10
12.567252
 20
212.723675
 10
11.836618
 20
215.206158
 42
-0.513017
 10
13.83322
 20
217.76932
 42
0.03643
  0
LWPOLYLINE
  5
6B
102
{ACAD_REACTORS
330
31
102
}
100
AcDbEntity
  8
0
  6
CONTINUOUS
 62
     7
100
AcDbPolyline
 90
        6
 70
     1
 10
20.766268
 20
227.489029
 10
21.907646
 20
226.866729
 42
0.414214
 10
24.078326
 20
227.505595
 42
0.414214
 10
23.43946
 20
229.676275
 10
22.298082
 20
230.298574
 42
0.414214
 10
20.127402
 20
229.659708
 42
0.414214
  0
LWPOLYLINE
  5
6C
102
{ACAD_REACTORS
330
31
102
}
100
AcDbEntity
  8
0
  6
CONTINUOUS
 62
     7
100
AcDbPolyline
 90
        6
 70
     1
 10
5.401566
 20
235.866136
 10
6.542944
 20
235.243837
 42
0.414214
 10
8.713624
 20
235.882703
 42
0.414214
 10
8.074758
 20
238.053382
 10
6.93338
 20
238.675682
 42
0.414214
 10
4.7627
 20
238.036816
 42
0.414214
  0
LWPOLYLINE
  5
6D
102
{ACAD_REACTORS
330
31
102
}
100
AcDbEntity
  8
0
  6
CONTINUOUS
 62
     7
100
AcDbPolyline
 90
        6
 70
     1
 10
19.70269
 20
239.116961
 10
20.324989
 20
240.258339
 42
0.414214
 10
19.686123
 20
242.429018
 42
0.414214
 10
17.515444
 20
241.790152
 10
16.893144
 20
240.648775
 42
0.414214
 10
17.53201
 20
238.478095
 42
0.414214
  0
LWPOLYLINE
  5
6E
102
{ACAD_REACTORS
330
31
102
}
100
AcDbEntity
  8
0
  6
CONTINUOUS
 62
     7
100
AcDbPolyline
 90
        6
 70
     1
 10
11.325582
 20
223.752259
 10
11.947882
 20
224.893636
 42
0.414214
 10
11.309016
 20
227.064316
 42
0.414214
 10
9.138336
 20
226.42545
 10
8.516037
 20
225.284073
 42
0.414214
 10
9.154903
 20
223.113393
 42
0.414214
  0
LWPOLYLINE
  5
6F
102
{ACAD_REACTORS
330
31
102
}
100
AcDbEntity
  8
0
  6
CONTINUOUS
 62
     7
100
AcDbPolyline
 90
        2
 70
     1
 10
28.359013
 20
150.181818
 42
-1.0
 10
31.559013
 20
150.181818
 42
-1.0
  0
LWPOLYLINE
  5
70
102
{ACAD_REACTORS
330
31
102
}
100
AcDbEntity
  8
0
  6
CONTINUOUS
 62
     7
100
AcDbPolyline
 90
        2
 70
     1
 10
28.359013
 20
97.181818
 42
-1.0
 10
31.559013
 20
97.181818
 42
-1.0
  0
LWPOLYLINE
  5
71
102
{ACAD_REACTORS
330
31
102
}
100
AcDbEntity
  8
0
  6
CONTINUOUS
 62
     7
100
AcDbPolyline
 90
        2
 70
     1
 10
178.359013
 20
150.181818
 42
-1.0
 10
181.559013
 20
150.181818
 42
-1.0
  0
LWPOLYLINE
  5
72
102
{ACAD_REACTORS
330
31
102
}
100
AcDbEntity
  8
0
  6
CONTINUOUS
 62
     7
100
AcDbPolyline
 90
        2
 70
     1
 10
178.359013
 20
97.181818
 42
-1.0
 10
181.559013
 20
97.181818
 42
-1.0
  0
LWPOLYLINE
  5
73
102
{ACAD_REACTORS
330
31
102
}
100
AcDbEntity
  8
0
  6
CONTINUOUS
 62
     7
100
AcDbPolyline
 90
        8
 70
     1
 10
37.918026
 20
126.25
 10
48.918026
 20
126.25
 42
0.414214
 10
52.918026
 20
130.25
 10
52.918026
 20
140.681818
 42
0.414214
 10
48.918026
 20
144.681818
 10
37.918026
 20
144.681818
 42
0.414214
 10
33.918026
 20
140.681818
 10
33.918026
 20
130.25
 42
0.414214
  0
LWPOLYLINE
  5
74
102
{ACAD_REACTORS
330
31
102
}
100
AcDbEntity
  8
0
  6
CONTINUOUS
 62
     7
100
AcDbPolyline
 90
        2
 70
     1
 10
179.359013
 20
123.681818
 42
-1.0
 10
185.559013
 20
123.681818
 42
-1.0
  0
LWPOLYLINE
  5
75
102
{ACAD_REACTORS
330
31
102
}
100
AcDbEntity
  8
0
  6
CONTINUOUS
 62
   253
100
AcDbPolyline
 90
        6
 70
     1
 10
187.709013
 20
126.712907
 10
182.459013
 20
129.743996
 10
177.209013
 20
126.712907
 10
177.209013
 20
120.650729
 10
182.459013
 20
117.61964
 10
187.709013
 20
120.650729
  0
LWPOLYLINE
  5
76
102
{ACAD_REACTORS
330
31
102
}
100
AcDbEntity
  8
0
  6
CONTINUOUS
 62
     7
100
AcDbPolyline
 90
        2
 70
     1
 10
93.751359
 20
149.15
 42
-1.0
 10
96.251359
 20
149.15
 42
-1.0
  0
LWPOLYLINE
  5
77
102
{ACAD_REACTORS
330
31
102
}
100
AcDbEntity
  8
0
  6
CONTINUOUS
 62
     7
100
AcDbPolyline
 90
        2
 70
     1
 10
113.668026
 20
149.35
 42
-1.0
 10
116.168026
 20
149.35
 42
-1.0
  0
LWPOLYLINE
  5
78
102
{ACAD_REACTORS
330
31
102
}
100
AcDbEntity
  8
0
  6
CONTINUOUS
 62
     7
100
AcDbPolyline
 90
        2
 70
     1
 10
93.75068
 20
97.95
 42
-1.0
 10
96.25068
 20
97.95
 42
-1.0
  0
LWPOLYLINE
  5
79
102
{ACAD_REACTORS
330
31
102
}
100
AcDbEntity
  8
0
  6
CONTINUOUS
 62
     7
100
AcDbPolyline
 90
        2
 70
     1
 10
113.667346
 20
98.15
 42
-1.0
 10
116.167346
 20
98.15
 42
-1.0
  0
LWPOLYLINE
  5
7A
102
{ACAD_REACTORS
330
31
102
}
100
AcDbEntity
  8
0
  6
CONTINUOUS
 62
     7
100
AcDbPolyline
 90
        2
 70
     1
 10
24.918026
 20
107.5
 42
-1.0
 10
24.918026
 20
110.0
 42
-1.0
  0
LWPOLYLINE
  5
7B
102
{ACAD_REACTORS
330
31
102
}
100
AcDbEntity
  8
0
  6
CONTINUOUS
 62
     7
100
AcDbPolyline
 90
        2
 70
     1
 10
24.818026
 20
137.458333
 42
-1.0
 10
24.818026
 20
139.958333
 42
-1.0
  0
LWPOLYLINE
  5
7C
102
{ACAD_REACTORS
330
31
102
}
100
AcDbEntity
  8
0
  6
CONTINUOUS
 62
     7
100
AcDbPolyline
 90
        8
 70
     1
 10
59.918026
 20
126.25
 10
77.918026
 20
126.25
 42
0.414214
 10
81.918026
 20
130.25
 10
81.918026
 20
140.681818
 42
0.414214
 10
77.918026
 20
144.681818
 10
59.918026
 20
144.681818
 42
0.414214
 10
55.918026
 20
140.681818
 10
55.918026
 20
130.25
 42
0.414214
  0
LWPOLYLINE
  5
7D
102
{ACAD_REACTORS
330
31
102
}
100
AcDbEntity
  8
0
  6
CONTINUOUS
 62
     7
100
AcDbPolyline
 90
        8
 70
     1
 10
37.918026
 20
102.534091
 10
48.918026
 20
102.534091
 42
0.414214
 10
52.918026
 20
106.534091
 10
52.918026
 20
116.965909
 42
0.414214
 10
48.918026
 20
120.965909
 10
37.918026
 20
120.965909
 42
0.414214
 10
33.918026
 20
116.965909
 10
33.918026
 20
106.534091
 42
0.414214
  0
LWPOLYLINE
  5
7E
102
{ACAD_REACTORS
330
31
102
}
100
AcDbEntity
  8
0
  6
CONTINUOUS
 62
     7
100
AcDbPolyline
 90
        8
 70
     1
 10
59.918026
 20
102.534091
 10
77.918026
 20
102.534091
 42
0.414214
 10
81.918026
 20
106.534091
 10
81.918026
 20
116.965909
 42
0.414214
 10
77.918026
 20
120.965909
 10
59.918026
 20
120.965909
 42
0.414214
 10
55.918026
 20
116.965909
 10
55.918026
 20
106.534091
 42
0.414214
  0
LWPOLYLINE
  5
7F
102
{ACAD_REACTORS
330
31
102
}
100
AcDbEntity
  8
0
  6
CONTINUOUS
 62
     7
100
AcDbPolyline
 90
        8
 70
     1
 10
133.918026
 20
126.25
 10
144.918026
 20
126.25
 42
0.414214
 10
148.918026
 20
130.25
 10
148.918026
 20
140.681818
 42
0.414214
 10
144.918026
 20
144.681818
 10
133.918026
 20
144.681818
 42
0.414214
 10
129.918026
 20
140.681818
 10
129.918026
 20
130.25
 42
0.414214
  0
LWPOLYLINE
  5
80
102
{ACAD_REACTORS
330
31
102
}
100
AcDbEntity
  8
0
  6
CONTINUOUS
 62
     7
100
AcDbPolyline
 90
        8
 70
     1
 10
155.918026
 20
126.25
 10
168.918026
 20
126.25
 42
0.414214
 10
172.918026
 20
130.25
 10
172.918026
 20
140.681818
 42
0.414214
 10
168.918026
 20
144.681818
 10
155.918026
 20
144.681818
 42
0.414214
 10
151.918026
 20
140.681818
 10
151.918026
 20
130.25
 42
0.414214
  0
LWPOLYLINE
  5
81
102
{ACAD_REACTORS
330
31
102
}
100
AcDbEntity
  8
0
  6
CONTINUOUS
 62
     7
100
AcDbPolyline
 90
        8
 70
     1
 10
133.918026
 20
102.534091
 10
144.918026
 20
102.534091
 42
0.414214
 10
148.918026
 20
106.534091
 10
148.918026
 20
116.965909
 42
0.414214
 10
144.918026
 20
120.965909
 10
133.918026
 20
120.965909
 42
0.414214
 10
129.918026
 20
116.965909
 10
129.918026
 20
106.534091
 42
0.414214
  0
LWPOLYLINE
  5
82
102
{ACAD_REACTORS
330
31
102
}
100
AcDbEntity
  8
0
  6
CONTINUOUS
 62
     7
100
AcDbPolyline
 90
        8
 70
     1
 10
155.918026
 20
102.534091
 10
168.918026
 20
102.534091
 42
0.414214
 10
172.918026
 20
106.534091
 10
172.918026
 20
116.965909
 42
0.414214
 10
168.918026
 20
120.965909
 10
155.918026
 20
120.965909
 42
0.414214
 10
151.918026
 20
116.965909
 10
151.918026
 20
106.534091
 42
0.414214
  0
LWPOLYLINE
  5
83
102
{ACAD_REACTORS
330
31
102
}
100
AcDbEntity
  8
0
  6
CONTINUOUS
 62
     7
100
AcDbPolyline
 90
        8
 70
     1
 10
88.918026
 20
126.25
 10
97.918026
 20
126.25
 42
0.414214
 10
101.918026
 20
130.25
 10
101.918026
 20
137.631462
 42
0.414214
 10
97.918026
 20
141.631462
 10
88.918026
 20
141.631462
 42
0.414214
 10
84.918026
 20
137.631462
 10
84.918026
 20
130.25
 42
0.414214
  0
LWPOLYLINE
  5
84
102
{ACAD_REACTORS
330
31
102
}
100
AcDbEntity
  8
0
  6
CONTINUOUS
 62
     7
100
AcDbPolyline
 90
        8
 70
     1
 10
88.918026
 20
105.75
 10
97.918026
 20
105.75
 42
0.414214
 10
101.918026
 20
109.75
 10
101.918026
 20
116.990503
 42
0.414214
 10
97.918026
 20
120.990503
 10
88.918026
 20
120.990503
 42
0.414214
 10
84.918026
 20
116.990503
 10
84.918026
 20
109.75
 42
0.414214
  0
LWPOLYLINE
  5
85
102
{ACAD_REACTORS
330
31
102
}
100
AcDbEntity
  8
0
  6
CONTINUOUS
 62
     7
100
AcDbPolyline
 90
        8
 70
     1
 10
111.918026
 20
126.368538
 10
120.918026
 20
126.368538
 42
0.414214
 10
124.918026
 20
130.368538
 10
124.918026
 20
137.75
 42
0.414214
 10
120.918026
 20
141.75
 10
111.918026
 20
141.75
 42
0.414214
 10
107.918026
 20
137.75
 10
107.918026
 20
130.368538
 42
0.414214
  0
LWPOLYLINE
  5
86
102
{ACAD_REACTORS
330
31
102
}
100
AcDbEntity
  8
0
  6
CONTINUOUS
 62
     7
100
AcDbPolyline
 90
        8
 70
     1
 10
111.918026
 20
105.867451
 10
120.918026
 20
105.867451
 42
0.414214
 10
124.918026
 20
109.867451
 10
124.918026
 20
117.107955
 42
0.414214
 10
120.918026
 20
121.107955
 10
111.918026
 20
121.107955
 42
0.414214
 10
107.918026
 20
117.107955
 10
107.918026
 20
109.867451
 42
0.414214
  0
LWPOLYLINE
  5
87
102
{ACAD_REACTORS
330
31
102
}
100
AcDbEntity
  8
0
  6
CONTINUOUS
 62
     7
100
AcDbPolyline
 90
       64
 70
     1
 10
114.959013
 20
93.681818
 10
139.933191
 20
93.681818
 10
144.328728
 20
85.055092
 10
144.384501
 20
85.08351
 10
145.018417
 20
83.839381
 42
0.414214
 10
146.027164
 20
83.511619
 42
-0.414214
 10
147.035912
 20
83.183857
 10
180.84362
 20
16.832494
 42
-0.140331
 10
181.05414
 20
15.751845
 42
0.588767
 10
202.082862
 20
1.580405
 42
0.588767
 10
202.9783
 20
26.922763
 42
-0.140331
 10
202.227777
 20
27.728266
 10
168.622763
 20
93.681818
 10
185.959013
 20
93.681818
 42
0.414214
 10
189.959013
 20
97.681818
 10
189.959013
 20
149.681818
 42
0.414214
 10
185.959013
 20
153.681818
 10
168.52961
 20
153.681818
 10
202.18679
 20
219.737753
 42
-0.140331
 10
202.937313
 20
220.543256
 42
0.588767
 10
202.041875
 20
245.885613
 42
0.588767
 10
181.013152
 20
231.714174
 42
-0.140331
 10
180.802633
 20
230.633525
 10
146.994925
 20
164.282162
 42
-0.414214
 10
145.986177
 20
163.9544
 42
0.414214
 10
144.97743
 20
163.626638
 10
144.341366
 20
162.378293
 10
141.436389
 20
156.73286
 10
139.881806
 20
153.681818
 10
114.959013
 20
153.681818
 10
114.959013
 20
149.181818
 10
94.959013
 20
149.181818
 10
94.959013
 20
153.681818
 10
51.763943
 20
153.681818
 10
51.283086
 20
155.315632
 42
0.414214
 10
50.351844
 20
155.823361
 42
-0.414214
 10
49.420603
 20
156.331091
 10
28.395234
 20
227.769164
 42
-0.140331
 10
28.387094
 20
228.870098
 42
0.588767
 10
10.324075
 20
246.667969
 42
0.588767
 10
4.782156
 20
221.922787
 42
-0.140331
 10
5.371699
 20
220.992969
 10
25.182448
 20
153.681818
 10
23.959013
 20
153.681818
 42
0.414214
 10
19.959013
 20
149.681818
 10
19.959013
 20
138.681818
 10
24.959013
 20
138.681818
 10
24.959013
 20
108.681818
 10
19.959013
 20
108.681818
 10
19.959013
 20
97.681818
 42
0.414214
 10
23.959013
 20
93.681818
 10
25.193302
 20
93.681818
 10
5.412686
 20
26.473049
 42
-0.140331
 10
4.823144
 20
25.543232
 42
0.588767
 10
10.365062
 20
0.79805
 42
0.588767
 10
28.428081
 20
18.595921
 42
-0.140331
 10
28.436221
 20
19.696854
 10
49.46159
 20
91.134928
 42
-0.414214
 10
50.392831
 20
91.642657
 42
0.414214
 10
51.324073
 20
92.150387
 10
51.774798
 20
93.681818
 10
94.959013
 20
93.681818
 10
94.959013
 20
98.181818
 10
114.959013
 20
98.181818
  0
ENDSEC
  0
SECTION
  2
OBJECTS
  0
DICTIONARY
  5
C
100
AcDbDictionary
  3
ACAD_GROUP
350
D
  3
ACAD_MLINESTYLE
350
1B
  0
DICTIONARY
  5
D
102
{ACAD_REACTORS
330
C
102
}
100
AcDbDictionary
  3
VISIOGROUP_0
350
31
  0
DICTIONARY
  5
1B
102
{ACAD_REACTORS
330
C
102
}
100
AcDbDictionary
  3
STANDARD
350
1C
  0
MLINESTYLE
  5
1C
102
{ACAD_REACTORS
330
1B
102
}
100
AcDbMlineStyle
  2
STANDARD
 70
     0
  3

 62
   256
 51
90.0
 52
90.0
 71
     2
 49
0.5
 62
   256
  6
BYLAYER
 49
-0.5
 62
   256
  6
BYLAYER
  0
GROUP
  5
31
102
{ACAD_REACTORS
330
D
102
}
100
AcDbGroup
300
Group created by UlrichC.
 70
     0
 71
     1
340
32
340
33
340
34
340
35
340
36
340
37
340
38
340
39
340
3A
340
3B
340
3C
340
3D
340
3E
340
3F
340
40
340
41
340
42
340
43
340
44
340
45
340
46
340
47
340
48
340
49
340
4A
340
4B
340
4C
340
4D
340
4E
340
4F
340
50
340
51
340
52
340
53
340
54
340
55
340
56
340
57
340
58
340
59
340
5A
340
5B
340
5C
340
5D
340
5E
340
5F
340
60
340
61
340
62
340
63
340
64
340
65
340
66
340
67
340
68
340
69
340
6A
340
6B
340
6C
340
6D
340
6E
340
6F
340
70
340
71
340
72
340
73
340
74
340
75
340
76
340
77
340
78
340
79
340
7A
340
7B
340
7C
340
7D
340
7E
340
7F
340
80
340
81
340
82
340
83
340
84
340
85
340
86
340
87
  0
ENDSEC
  0
EOF

